Oops, an error
Loading. Please wait.

Tide tab

version 5
version 5

Interactive

3,198 views 1 this week
4 commentsread comments
1 2 3 4 5
3 more votes to show rating
add to favorites
×
Save as Personal and add changes to this tab that will be seen only by you. Learn more ›
×
You can save this tab as Personal to edit and correct it or add notes. All changes will be seen only by you. Learn more »
launch autoscroll
font size
0
reset
how to read this tab
guitar tuner
edit
Autoscroll
slow
fast
+/-
esc
set tempo
stop
Author
-------------------------------------------------------------------------------
                             The Tide - The Spill Canvas
-------------------------------------------------------------------------------
Tabbed by:flyboy52
Email:atif9552@yahoo.ca

Tuning:standard capoed at 2
       or up a full step, 
                 ---i think
I'm pretty sure this is right
I was watching him play live
and i was watching him play in the video

liste for the strumming pattern
sorry I couldn't do exact timings.
feel free to let me know if you find something wrong with it 


intro:

e|-x-|
B|-x-|
G|-x-| muted strumming
D|-x-|
A|-x-|
E|-x-|

e|------------------------------------------------------|
B|------------------------------------------------------|
G|---2/5--7---2/5--7-------7------5---------------------|
D|---x-x--5---x-x--5-------7------5---------------------|
A|---4/7--7---4/7--7-------5------3---------------------|
E|------------------------------------------------------|

e|-----------------------------| |-------------------------|
B|-----------------------------| |-------------------------|
G|---2/5--7---2/5--7-------7---| |-------------------------|
D|---x-x--5---x/x--5-------7---| |---------2p0-0--4p0-0-5--|x2
A|---4/7--7---4/7--7-------5---| |---2/3-3-----------------|
E|-----------------------------| |-------------------------|


verse:
e|-----------------------------|
B|-----------------------------|
G|--5-7---5-7-----7----5-------|
D|--0h5---x-5-----7----5-------|
A|--0h7---7-7-----5----3-------|
E|-----------------------------|


Pre chorus:
e|------------------------3---3---3------------------|
B|------------------------3---3---3------------------|
G|----7-----/9----9-----------2--------4-x-4---------|
D|----7-----/9----9---------------2----4-x-4---------|
A|----5-----/7----7-------2-------3----2-x-2---------|
E|----------------8-------3---2----------------------|

chorus:
e|-------------------------3---3---3-------------------|
B|-------------------------3---3---3-------------------|
G|-----7----------9------------2----------4-x-4--------| 
D|-----5----------9----------------2------4-x-4--------|
A|-----7----------7--------2-------3------2-x-2--------|
E|----------------8--------3---2-----------------------|
 
post chorus
e|------------------|      
B|------------------|      
G|---4/5--7----7----|
D|---x/x--5----7----|      
A|---2/7--7----5----|     
E|------------------|     

solo:
|-------------------------------|
|-------------------------------|
|-------------------------------|
|----------2p0-0-4p0-0-5--------|
|--2/3-3------------------------|
|-------------------------------|

bridge:
e|---------------------------|     
B|---------------------------|     
G|----7--------7--------5----|     
D|----5--------7--------5----| x2  
A|----7--------5--------3----|    
E|---------------------------|     

post bridge:
|------------|
|------------|
|--4-x-4-----|
|--4-x-4-----|
|--2-x-2-----|
|------------|

Intro x1
verse x6
prechorus x1 
chorus x2
post chorus x1
solo x4
verse x6
prechorus x1
chorus x2
post chorus x1
bridge x2
solo x3
verse x4
bridge x2
post bridge x1
chorus x2
post chorus x1 (end without x577xx ->[EADBGe])


| /  slide up
| \  slide down
| h  hammer-on
| p  pull-off
| ~  vibrato
| +  harmonic
| x  Mute note
===============================================================================


            
            
Suggest correction
Creating personal tab
Creating personal tab
You can edit any tab online and save it as your Personal.

You can edit, replace or remove any tab part or add personal notes – all changes will be seen only by you.

Personal tabs can be accessed anytime from any device, even offline.
Learn more »
Give kudos to tab author, rate the tab!
1 2 3 4 5
comments
print report bad tab
4 comments total. Showing first comments.
0 reply
flyboy52 112 Dec 01, 2006 01:14 PM

that x755xx in the bridge should be a x355xx
sorry guys :)

0 reply
flyboy52 112 Dec 06, 2006 02:25 PM

i used these bideos to tab the song
http://youtube.com/watch?v=7DiiD2uiWEA
http://youtube.com/watch?v=_eud2I9SwGE&mode=related&search=
the 2nd one is the official vid,
and the first is him live.. but dome guy's head is in the way a lot

+1 reply
SoberingThought 10 Jan 20, 2007 05:11 PM

you may have better luck with their MySpace site, it has the same video, but in the front row

http://profile.myspace.com/index.cfm?fuseaction=user.viewprofile&friendID=6926446

guest
You may want to rate the tab now too:
select rating
Wanna post a correction for this tab? Suggest correction