Oops, an error
Loading. Please wait.

Your Evil Soul tab

version 2
version 2

Whole song

936 views 3 this week
no commentswrite comment
1 2 3 4 5
1 last vote to show rating
add to favorites
×
Save as Personal and add changes to this tab that will be seen only by you. Learn more ›
×
You can save this tab as Personal to edit and correct it or add notes. All changes will be seen only by you. Learn more »
launch autoscroll
font size
0
reset
how to read this tab
guitar tuner
edit
Autoscroll
slow
fast
+/-
esc
set tempo
stop
Another tab was posted but is slightly wrong i'm only improving it. It's wrong make a
comment with the correction. Drop D tuning.

I will be posting the segments of the song along with a final composition of how many
times each segment is played and in the correct sequence of the segments (so people won't
get confused). Rate if you like it! (also if the title of the segments are wrong then 
don't complain it doesn't change the accuracy of the tab).


INTRO/VERSE
E|-------1P0------------------------------------|
B|----------------------------------------------|
G|-----------------------3XXX3333---------------|
D|-0~------------000-----3XXX3333---------------|
A|-0~------------000-----1XXX1111---------------|
D|-0~------------000----------------------------|

BRIDGE
E|-----------------------------------------------|
B|-----------------------------------------------|
G|-22222222-33333333-22222222----3333--5555------|
D|-22222222-33333333-22222222----3333--5555------|
A|-00000000-11111111-00000000----1111--3333------|
D|-----------------------------------------------|

PRE-CHORUS
E|-----------------------------------------------|
B|-----------------------------------------------|
G|-77XX7---3333---77XXX---3333-------------------|
D|-77XX7---3333---77XXX---3333-------------------|
A|-55XX5---1111---55XXX---1111-------------------|
D|-----------------------------------------------|

CHORUS
E|-------------1P0--------------------------------------------|
B|------------------------------------------------------------|
G|---------------------------------------------------555-7777-|
D|-33XXX-0------------0000-------ON-3RD-TIME---------555-7777-|
A|-33XXX-0------------0000--(This part is a little---333-5555-|
D|-33XXX-0------------0000-------iffy for me)-----------------|

ENDING CHORUS
E|----------------------------------------------|
B|----------------------------------------------|
G|-------------------------------------33333333-|
D|-33XXX-0------------0000-------------33333333-|
A|-33XXX-0------------0000-------------11111111-|
D|-33XXX-0------------0000----------------------|

OUTRO
E|----------------------------------------------|
B|----------------------------------------------|
G|------------55555555---77777777---33333333----|
D|-33333333---55555555---77777777---33333333----|
A|-33333333---33333333---55555555---11111111----|
D|-33333333-------------------------------------|


Sequence:

Intro/Verse.....X 4
Bridge..........X 1
Pre-Chorus......X 1
Bridge..........X 1
Chorus..........X 2
Bridge..........X 1

Intro/Verse.....X 6
Bridge..........X 1
Pre-Chorus......X 1
Bridge..........X 1
Chorus..........X 2
    -at the end, play:

        E|-----------|
        B|-----------|
        G|--22222222-|
        D|--22222222-|
        A|--00000000-|
        D|-----------|
Outro...........X 2
Ending Chorus...X 2
End on:

        E|---|
        B|---|
        G|---|
        D|-0-|
        A|-0-|
        D|-0-|


Original Tab by: Unknown
Corrections by : Chris (Sorrow88)

            
            
Suggest correction
Creating personal tab
Creating personal tab
You can edit any tab online and save it as your Personal.

You can edit, replace or remove any tab part or add personal notes – all changes will be seen only by you.

Personal tabs can be accessed anytime from any device, even offline.
Learn more »
Give kudos to tab author, rate the tab!
1 2 3 4 5
comments
print report bad tab
guest
You may want to rate the tab now too:
select rating
Wanna post a correction for this tab? Suggest correction