Oops, an error
Loading. Please wait.

Brown Boxes Tab

1,820 views 1 this week
1 commentread comment
1 2 3 4 5
please rate
add to favorites
launch autoscroll
font size
0
reset
how to read this tab
guitar tuner
Autoscroll
slow
fast
+/-
esc
set tempo
stop
Help us to improve Ultimate-Guitar.com Take our survey!
×
-----------------------------------------------------------------------------
                             BROWN BOXES - The Spinto Band
-----------------------------------------------------------------------------
Tabbed by: Chapman Li (aka SonicYouthRules)
Email: chapman_li@hotmail.com

Tuning: Lead Guitar - tune one step down

i.e. Eb Ab Db Gb Bb eb (low to high)

Rhythm Guitar (i.e. chords) - Standard


Great song, plz give me a rating if you like! Also, note that Lead guitar is
one step below, and rhythm is Standard tuning. Enjoy....



INTRO - Lead Guitar

eb|-----------------------------------------------------------------------|
Bb|--12-14-15-14--12---12-14-15-14-17-12-15-12----------------------------|
Gb|-----------------------------------------------------------------------|
Db|-----------------------------------------------------------------------|
Ab|-----------------------------------------------------------------------|
Eb|-----------------------------------------------------------------------|



VERSE Riff (variation) Lead Guitar


eb|-----------------------------------------------------------------------|
Bb|-----------------------------------------------------------------------|
Gb|-----------------------------------------------------------------------|
Db|-------------------------------------7---------------------------------|
Ab|-7-7-7-7-7-7---7-7-7-7-7-7---7-7-7-7-5--7-7-7-7-7-7--------------------|
Eb|-5-5-5-5-5-0---5-5-5-5-5-0---5-5-5-5----5-5-5-5-5-0--------------------|


VERSE 1 (rhythm guitar)

Ab
I've got this notion, 
           C#       Ab
that moving out is better, 

Than this commotion, 
           C#     Ab
if she complains I wont let her, 


C#              G#
Tell me what to do 
          Bb     C#       G#
and when she wants to argue 
Bb           C#            E5
ill remind her that were through 



VERSE 2

Ab
A late reminder, 
            C#          Ab
and post-it notes and markers, 

Ab                                C#        Ab
were it not kinder her black eye would be darker, 


C#                   G#            Bb       C#         G#
And all these brown boxes havent helped me move one bit 
Bb            C#           E5
in half-empty rooms they sit, 



CHORUS 1

G#     C#                   Bb            
Stay thats where they will stay 
C#             G#
I could never say, 
C#             Bb
I would never say, 
C#
"This is over" 



VERSE 3

Ab
Ive got this cupid 
       C#           Ab
humble from the marker 
                       C#            Ab
Its pretty stupid, but none-the-less ill pack it 


C#                    G#
and this boxcutters too dull, 
          Bb      C#     G#
other wise id end it all, 
Bb          C#              E5
theres still boxes in the hall, 



CHORUS 2

G#        C#                     Bb
And stay, thats where they will stay, 
C#              G#     C#        Bb
I could never place any other blame, 
    G#      C#         Bb
And how could you even go, 
     C#           G#          C#
on living if its so, unintentional, 
Bb               (end with Intro riff)
I, Lied, to, you


| /  slide up
| \  slide down
| h  hammer-on
| p  pull-off
| ~  vibrato
| +  harmonic
| x  Mute note
=============================================================================
Suggest correction
Give kudos to tab author, rate the tab!
1 2 3 4 5
comments
print report bad tab
1 comment total.
0 reply
MoonBoots432 200 wrote on October 27 2007, 12:05 am

That's a half step down, not a step down.

guest
You may want to rate the tab now too:
select rating
Wanna post a correction for this tab? Suggest correction