Oops, an error
Loading. Please wait.

Oh Mandy Bass Tab

1,831 views 1 this week
no commentswrite comment
1 2 3 4 5
please rate
add to favorites
launch autoscroll
font size
0
reset
guitar tuner
Autoscroll
slow
fast
+/-
esc
set tempo
stop
Help us to improve Ultimate-Guitar.com Take our survey!
×
Difficulty
novice
THE SPINTO BAND.  OH,MANDY  BASS TAB
 BY GREG MORRIS

Intro                  Bb
G|--------------------|-----------------|-----------------|-----------------|
D|--------------------|-----------------|-----------------|-----------------|
A|--------------------|-----------------|-----------------|-----------------|
E|--------------------|-6-6-6-6-6-6-6-6-|-6-6-6-6-6-6-6-6-|-6-6-6-6-6-6-6-6-|

VERSE AND CHORUS
  D                                   A
G|-----------------|-----------------|-----------------|-----------------|
D|-----------------|-----------------|-----------------|-----------------|
A|-5-5-5-5-5-5-5-5-|-5-5-5-5-5-5-5-5-|-----------------|-----------------|
E|-----------------|-----------------|-5-5-5-5-5-5-5-5-|-5-5-5-5-5-5-5-5-|
  B                                   G
G|-----------------|-----------------|-------------------------|-------------------------|
D|-----------------|-----------------|-------------------------|-------------------------|
A|-----------------|-----------------|-10-10-10-10-10-10-10-10-|-10-10-10-10-10-10-10-10-|
E|-7-7-7-7-7-7-7-7-|-7-7-7-7-7-7-7-7-|-------------------------|-------------------------|

BRIDGE

                                                                                             G
G|-------------------------|-------------------------|-----------------|-----------------|
D|-------------------------|-------------------------|-----------------|-----------------|
A|-10-10-10-10-10-10-10-10-|-10-10-10-10-10-10-10-10-|-9-9-9-9-9-9-9-9-|-7-7-7-7-7-7-7-7-|
E|-------------------------|-------------------------|-----------------|-----------------|
  D                                    A
G|-----------------|-----------------|-----------------|-----------------|
D|-----------------|-----------------|-----------------|-----------------|
A|-5-5-5---5-5-5---|-5-5-5---5-5-5---|-----------------|-----------------|
E|-----------------|-----------------|-5-5-5---5-5-5---|-5-5-5---5-5-5---|
  B                                   D
G|-----------------|-----------------|-----------------|-----------------|
D|-----------------|-----------------|-----------------|-----------------|
A|-----------------|-----------------|-5-5-5---5-5-5---|-5-5-5---5-5-5---|
E|-7-7-7---7-7-7---|-7-7-7---7-7-7---|-----------------|-----------------|
  F#                                  G
G|-----------------|-----------------|-------------------------|--------------------------|
D|-----------------|-----------------|-------------------------|--------------------------|
A|-9-9-9-9-9-9-9-9-|-9-9-9-9-9-9-9-9-|-10-10-10-10-10-10-10-10-|-10-10-10-10-10-10-10-10--|
E|-----------------|-----------------|-------------------------|--------------------------|
  F#                                  G
G|-----------------|-----------------|-------------------------|-----------------|
D|-----------------|-----------------|-------------------------|-----------------|
A|-9-9-9-9-9-9-9-9-|-9-9-9-9-9-9-9-9-|-10-10-10-10-10-10-10-10-|-----------------|
E|-----------------|-----------------|-------------------------|-6-6-6-6-6-6-6-6-|

NOTE, This is taken from a live performance and not of the album recording,
which is slightly different.
Like in the verse and chorus the G is played on E string 3rd fret,
also the bridge is different in places

live video link: http://www.youtube.com/watch?v=osjinF6Swwk
Suggest correction
Give kudos to tab author, rate the tab!
1 2 3 4 5
comments
print report bad tab
guest
You may want to rate the tab now too:
select rating
Please do not post tabs as comments. Select "correction" instead!