Oops, an error
Loading. Please wait.

Oh Mandy Tab

version 1
version 1

Whole song

10,747 views 6 this week
7 commentsread comments
1 2 3 4 5
x 6
add to favorites
launch autoscroll
font size
0
reset
how to read this tab
guitar tuner
Autoscroll
slow
fast
+/-
esc
set tempo
stop
Help us to improve Ultimate-Guitar.com Take our survey!
×
-----------------------------------------------------------------------------
                             Oh Mandy - The SPINTO BAND
-----------------------------------------------------------------------------
Tabbed by: SonicYouthRules
Email: chapman_li@hotmail.com

Tuning: Standard


Great song by this promising band - hope u like n if you do, plz give me a rating!

INTRO
e|-------5-5---5------------------------------------------------------------|
B|---3-3-3-3-3-3-3----------------------------------------------------------|
G|-3-3-3-3-3-3-3-3---ETC----------------------------------------------------|
D|--------------------------------------------------------------------------|
A|--------------------------------------------------------------------------|
E|--------------------------------------------------------------------------|


MAIN RIFF

e|------2-2-2-2---0-0-----0----5-5---5------6-6-6-6-6-----------------------|
B|--3-3-3-3-3-3---3-3-3-3-3----3-3-3-3--3---3-3-3-3-3-----------------------|
G|--0-0-0-0-0-0---0-0-0-0-0--0-0-0-0-0--0-0-0-0-0-0-0-----------------------|
D|--------------------------------------------------------------------------|
A|--------------------------------------------------------------------------|
E|--------------------------------------------------------------------------|


2nd guitar plays this 12 frets up the guitar, ie. using these chords
e|--14-----12-------17------18----------------------------------------------|
B|--15-----15-------15------15----------------------------------------------|
G|--12-----12-------12------12----------------------------------------------|
D|--------------------------------------------------------------------------|
A|--------------------------------------------------------------------------|
E|--------------------------------------------------------------------------|

Listen to the record for timings, it's fairly easy to figure


BREAK(1:58)

e|--------------------------------------------------------------------------|
B|--------------------------------------------------------------------------|
G|--------------------------------------------------------------------------|
D|--7~---------------------------------------------------7~-----------------|
A|--5~----------8~----------7~----------7~---------------5~-----------------|
E|--------------6~----------5~----------5~----------------------------------|

e|--------------------------------------------------------------------------|
B|--------------------------------------------------------------------------|
G|------------------------------------------------------etc-----------------|
D|--------------------------------------------------------------------------|
A|--8~-----------7~----------8~-----------7~--------------------------------|
E|--6~-----------5~----------6~-----------5~--------------------------------|


Main Riffs played throughout the break also


| /  slide up
| \  slide down
| h  hammer-on
| p  pull-off
| ~  vibrato
| +  harmonic
| x  Mute note
=============================================================================
Suggest correction
comments
print report bad tab
7 comments total. Showing first comments.
0 reply
tamnud 10 Jun 18, 2006 04:55 PM

its a damn shame that no one has heard of the spinto band...they're a really good band, great tab keep up the good work!

0 reply
wolfey89 159 Jul 02, 2006 07:04 PM

Man they are good, this is my favorite song by them...I think your tab is good, just so you know the second guitar is actually a mandolin, and I think your main riff is a bit off but you can get the basic idea from it.

0 reply
tamnud 10 Jul 22, 2006 05:07 PM

i think the main riff on guitar 2 sounds better if you make the 12 on the g-string a 14 its a lot harder to play though

guest
You may want to rate the tab now too:
select rating
Wanna post a correction for this tab? Suggest correction