Oops, an error
Loading. Please wait.

Send Me An Angel Tab

578 views 1 this week
no commentswrite comment
1 2 3 4 5
please rate
add to favorites
launch autoscroll
font size
0
reset
how to read this tab
guitar tuner
Tab Pro tools
  • play this tab
  • loop segment
  • change instrument
  • show fretboard
  • metronome
×
Best way to learn
"Send Me An Angel"
Autoscroll
slow
fast
+/-
esc
set tempo
stop
Contributor
Send Me An Angel - The Spookshow - Psychosexual Chapter I

Verse
e|--------------|
b|--------------|
g|-----8-----9--|
d|--9--8--6--9--|
a|--9--6--6--7--|
E|--7-----4-----|

Chorus
e|--------------|
b|--------------|
g|-----9--------|
d|--6--9--9--4--|
a|--6--7--9--4--|
E|--4-----7--2--|
comments
We did not receive enough feedback on this tab! Please rate:
print report bad tab
1 2 3 4 5
I want to post or [tab]
guest
You may want to rate the tab now too:
select rating
Please do not post tabs as comments. Select "correction" instead!