Oops, an error
Loading. Please wait.

Going All The Way bass

49 views 1 this week
no commentswrite comment
1 2 3 4 5
3 more votes to show rating
add to favorites
×
Save as Personal and add changes to this tab that will be seen only by you. Learn more ›
×
You can save this tab as Personal to edit and correct it or add notes. All changes will be seen only by you. Learn more »
launch autoscroll
font size
0
reset
guitar tuner
edit
Autoscroll
slow
fast
+/-
esc
set tempo
stop
Author
Going All The Way
The Squires
Written by Michael Bouyea; released as a single with "Go Ahead" as the B-side.

Intro:
G|------- ------- ------- -------|------- ------- ------- -------|
D|-------------------------------|-------------------------------|
A|-------------------------------|5-----------------------5---4--|
E|0------------------------------|-------------------------------|



G|------- ------- ------- -------|------- ------- ------- -------|
D|-------------------------------|-------------------------------|
A|3------------------------------|7---7---7---7---7---7---5---5--|
E|----------------------------0--|-------------------------------|



G|------- ------- ------- -------|------- ------- ------- -------|
D|-------------------------------|-------------------------------|
A|7---7---7---7---7---7---5---5--|7---7---7---7---7---7---5---5--|
E|-------------------------------|-------------------------------|



G|------- ------- ------- -------|------- ------- ------- -------|
D|-------------------------------|-------------------------------|
A|7---7---7---7---7---7---5---5--|7---7---7---7---7---7---5------|
E|-------------------------------|-------------------------------|


Verse:
G|------- ------- ------- -------|------- ------- ------- -------|
D|-------------------------------|-------------------------------|
A|7-------7---7---7---7---7---7--|7---7---7---7---7---7---5---5--|
E|-------------------------------|-------------------------------|
      I'm goin'   all     the way,        pretty  ba  -   by,


G|------- ------- ------- -------|------- ------- ------- -------|
D|-------------------------------|-------------------------------|
A|7---7---7---7---7---7---7---7--|7---7---7---7---7---5---5---5--|
E|-------------------------------|-------------------------------|
         'fore my time is     through,    yeah,


G|------- ------- ------- -------|------- ------- ------- -------|
D|-------------------------------|-------------------------------|
A|7---7---7---7---7---7---7---7--|7---7---7---7---7---7---5---5--|
E|-------------------------------|-------------------------------|
          Goin'   all     the way,        pretty  ba  -   by,


G|------- ------- ------- -------|------- ------- ------- -------|
D|-------------------------------|-------------------------------|
A|7-------7---7---7---7---7---7--|7---7---7---7---7---5---5---5--|
E|-------------------------------|-------------------------------|
      to  see what I  can     do.


G|------- ------- ------- -------|------- ------- ------- -------|
D|-------------------------------|-------------------------------|
A|7-------7---7---7---7---7---7--|7---7---7---7---7---5---5---5--|
E|-------------------------------|-------------------------------|
          All the things  that I've been looking for,     yeah,


G|------- ------- ------- -------|------- ------- ------- -------|
D|-------------------------------|-------------------------------|
A|7-------7---7---7---7---7---7--|7---7---7---7---7---5---5---5--|
E|-------------------------------|-------------------------------|
      or  every - one I'll    find,


G|------- ------- ------- -------|------- ------- ------- -------|
D|-------------------------------|-------------------------------|
A|7---7---7---7---7---7---7---7--|7---7---7---7---7---5---5---5--|
E|-------------------------------|-------------------------------|
      I'll see the sights,            I'll hear the sounds


G|------- ------- ------- -------|------- ------- ------- -------|
D|-------------------------------|-------------------------------|
A|7-------7-------7---7---7---7--|7-------7---7---7-------7------|
E|-------------------------------|-------------------------------|
      before  the end of  my  time.                   I'm goin' all

Refrain:
G|------- ------- ------- 5------|------- 5---3-- ----3-- -------|
D|--------------------7-------7--|----------------5-------5------|
A|5-----------5------------------|3------------------------------|
E|-------------------------------|-------------------------------|
      the way,                yeah,                   I'm goin' all


G|------- ------- ------- -------|------- ------- ------- -------|
D|-------------------------------|-------------------------------|
A|7---7---7---7---7---7-------5--|7-------7-------7-------7------|
E|-------------------------------|-------------------------------|
      the way.                                        I'm goin' all


G|------- ------- ------- 5------|------- 5---3-- ----3-- -------|
D|--------------------7-------7--|----------------5-------5------|
A|5-----------5------------------|3------------------------------|
E|-------------------------------|-------------------------------|
      the way,                yeah,               oh!


G|------- ------- ------- -------|------- ------- ------- -------|
D|-------------------------------|-------------------------------|
A|-------------------------------|5-----------------------5---4--|
E|0------------------------------|-------------------------------|



G|------- ------- ------- -------|------- ------- ------- -------|
D|-------------------------------|-------------------------------|
A|3------------------------------|7---7---7---7---7---7---5---5--|
E|-------------------------------|-------------------------------|



G|------- ------- ------- -------|------- ------- ------- -------|
D|-------------------------------|-------------------------------|
A|7-------7---7---7---7---5---5--|7---7---7---7---7---7---5---5--|
E|-------------------------------|-------------------------------|



G|------- ------- ------- -------|------- ------- ------- -------|
D|-------------------------------|-------------------------------|
A|7---7---7---7---7---7---7---7--|7---7---7---7---7---5---5---5--|
E|-------------------------------|-------------------------------|


Verse:
G|------- ------- ------- -------|------- ------- ------- -------|
D|-------------------------------|-------------------------------|
A|7-----------7---7---7---7---7--|7---7---7---7---7---7---5---5--|
E|-------------------------------|-------------------------------|
          My      hopes   are gettin'     so  much high - er,


G|------- ------- ------- -------|------- ------- ------- -------|
D|-------------------------------|-------------------------------|
A|7-------7---7---7---7---7---7--|7---7---7---7---7---5---5---5--|
E|-------------------------------|-------------------------------|
      my  soul is burnin' in- side,       yeah.


G|------- ------- ------- -------|------- ------- ------- -------|
D|-------------------------------|-------------------------------|
A|7-------7---7---7---7---7---7--|7---7---7---7---7---7---5---5--|
E|-------------------------------|-------------------------------|
          That    flame   is- tur -   nin' to a   fi  -   re,


G|------- ------- ------- -------|------- ------- ------- -------|
D|-------------------------------|-------------------------------|
A|7-------7---7---7---7---7---7--|7---7---7---7---7---5---5---5--|
E|-------------------------------|-------------------------------|
      just    the change  the tide.
          like        in

G|------- ------- ------- -------|------- ------- ------- -------|
D|-------------------------------|-------------------------------|
A|7---7---7---7---7---7---7---7--|7---7---7---7---7---5---5---5--|
E|-------------------------------|-------------------------------|
      I'll see the towns  from    north to the south,
                              the

G|------- ------- ------- -------|------- ------- ------- -------|
D|-------------------------------|-------------------------------|
A|7---7---7---7---7---7---7---7--|7---7---7---7---7---5---5---5--|
E|-------------------------------|-------------------------------|
          from the east to the west,              yeah!


G|------- ------- ------- -------|------- ------- ------- -------|
D|-------------------------------|-------------------------------|
A|7---7---7---7---7---7---7---7--|7---7---7---7---7---5---5---5--|
E|-------------------------------|-------------------------------|
      Well, all the cities,               all the countries


G|------- ------- ------- -------|------- ------- ------- -------|
D|-------------------------------|-------------------------------|
A|7-----------7---7---7---7---7--|7-------7---7-------7---7------|
E|-------------------------------|-------------------------------|
      before that long, long  rest,       yeah!       I'm goin' all

Refrain:
G|------- ----5-- ------- 5------|------- 5---3-- ----3-- -------|
D|--------7-----------7-------7--|----------------5-------5------|
A|5------------------------------|3------------------------------|
E|-------------------------------|-------------------------------|
      the way,                yeah,                   I'm goin' all


G|------- ------- ------- -------|------- ------- ------- -------|
D|-------------------------------|-------------------------------|
A|7---7---7---7---7---7---7---7--|7-------7---7---7---5---5------|
E|-------------------------------|-------------------------------|
      the way.                                        I'm goin' all


G|------- ----5-- ------- 5------|------- 5---3-- ----3-- -------|
D|--------7-----------7-------7--|----------------5-------5------|
A|5------------------------------|3------------------------------|
E|-------------------------------|-------------------------------|
      the way,                yeah!

Break (solo):
G|------- ------- ------- -------|------- ------- ------- -------|
D|-------------------------------|-------------------------------|
A|-------------------------------|-------------------------------|
E|0-----------0---0---0---0------|3---3---3-------3---3-------3--|



G|------- ------- ------- -------|------- ------- ------- -------|
D|-------------------------------|-------------------------------|
A|-------------------------------|3---3---3---3---3---3---3---3--|
E|5-------5-------5---5---5---5--|-------------------------------|



G|------- ------- ------- -------|------- ------- ------- -------|
D|-------------------------------|-------------------------------|
A|-------------------------------|-------------------------------|
E|0-------0-------0-------0------|3-------3---3---3---3---3---3--|



G|------- ------- ------- -------|------- ------- ------- -------|
D|-------------------------------|-------------------------------|
A|2---2---2---2---2---2---2---2--|2---1---0---0------------------|
E|-------------------------------|----------------3---3---2---1--|



G|------- ------- ------- -------|------- ------- ------- -------|
D|-------------------------------|-------------------------------|
A|-------------------------------|-------------------------------|
E|0-------0---0---0---0---0---0--|3-------3---3---3-------3---3--|



G|------- ------- ------- -------|------- ------- ------- -------|
D|-------------------------------|-------------------------------|
A|-------------------------------|3-------3---3---3-------3---3--|
E|5-------5---5---5-------5---5--|-------------------------------|



G|------- ------- ------- -------|------- ------- ------- -------|
D|-------------------------------|-------------------------------|
A|-------------------------------|2------------------------------|
E|0-------0-------0-------0------|-------------------------------|


Outro:
G|------- ------- ------- -------|------- ------- ------- -------|
D|-------------------------------|-------------------------------|
A|-------------------------------|5-----------------------5---4--|
E|0------------------------------|-------------------------------|



G|------- ------- ------- -------|------- ------- ------- -------|
D|-------------------------------|-------------------------------|
A|3------------------------------|-------------------------------|
E|-------------------------------|0------------------------------|


Please e-mail me for any corrections, or write a comment.

            
            
Suggest correction
Creating personal tab
Creating personal tab
You can edit any tab online and save it as your Personal.

You can edit, replace or remove any tab part or add personal notes – all changes will be seen only by you.

Personal tabs can be accessed anytime from any device, even offline.
Learn more »
Give kudos to tab author, rate the tab!
1 2 3 4 5
comments
print report bad tab
guest
You may want to rate the tab now too:
select rating
Wanna post a correction for this tab? Suggest correction