Oops, an error
Loading. Please wait.

Dunvegans Drums chords

124 views 3 this week
no commentswrite comment
1 2 3 4 5
2 more votes to show rating
add to favorites
×
Save as Personal and add changes to this tab that will be seen only by you. Learn more ›
×
You can save this tab as Personal to edit and correct it or add notes. All changes will be seen only by you. Learn more »
launch autoscroll
font size
0
reset
transpose
0
reset
display chords
guitar tuner
edit
Autoscroll
slow
fast
+/-
esc
set tempo
stop
Strumming
There is no strumming pattern for this song yet. and get +5 IQ
Dunvegan's Drums - The Stanfields

This one is fairly straight forward, let me know of any mistakes in the comments.

Capo 2

[Verse 1]
     Em               G
When Dunvegan's Drums beat in the air
       C                      Em
At the first of the Inverness fair
    Am  
The liquor starts flowing
        Em                  G
And the boys start going to town
     D              C 
With blood in their hair

    Em                     G
The townie boys eye up the boys from the glen
     C                    Em
They neither got money to spend
     Am   
They take all the girlies
Em 
Dancing and twirlin'
    G            D           C
And scrap around back in the end

[Solo]
        Em          D                G         C
e|------0-0-0-2-0-------------------------------------|
B|--0-3-----------3---0--------------0-0-0-------0-0--|
G|------------------2---2-0-2----0-2-------2-0--------| 
A|---------------------------------------------2------|
D|----------------------------------------------------|
E|----------------------------------------------------|
        Em         D                Em       D     Em
e|------0-0-0-2-0-------------------------------------|
B|--0-3-----------3---0-------------------------------|
G|------------------2---2-0-2----2-0-----0------------| 
A|-----------------------------------2-2-----4-2-0-2--|
D|----------------------------------------------------|
E|----------------------------------------------------|

[Verse 2]
   Em                       G
Me mother, she told me when I left the island,
           C                         Em
"Keep your nose and your fingernails clean
      Am 
Don't ever be shy,
       Em 
Always look in their eye,
    G      D            C
And always say what you mean."

       Em                       G
Well I meant what I said when I called him a coward
C                        Em
Riddled with filth and disease
    Am
The silence was golden
   Em                    G
As I was left holding my guts
     D          C
In a pile at my knees

[Solo]
        Em          D                G         C
e|------0-0-0-2-0-------------------------------------|
B|--0-3-----------3---0--------------0-0-0-------0-0--|
G|------------------2---2-0-2----0-2-------2-0--------| 
A|---------------------------------------------2------|
D|----------------------------------------------------|
E|----------------------------------------------------|
        Em         D                Em       D     Em
e|------0-0-0-2-0-------------------------------------|
B|--0-3-----------3---0-------------------------------|
G|------------------2---2-0-2----2-0-----0------------| 
A|-----------------------------------2-2-----4-2-0-2--|
D|----------------------------------------------------|
E|----------------------------------------------------|

[Interlude]
Am

Am    G       D
Am    G       D

[Bridge]
  Em                         D
I remember the jackals, they gathered around
G                        C
Laughing and watching me bleed
     Em                        D            
They fought in a pack and they beat themselves dumb
        Em
Rah-Dah-Dum-Dah
D          Em
Dunvegan's Drums

    Em                        D
I remember the bastards, they ran in the night
         G                         C 
When the Mounties showed up at the scene
    Em                                D
They're all good for nothing, they're rabble and scum
        Em
Rah-Dah-Dum-Dah
D          Em
Dunvegan's Drums

[Solo]
        Em          D                G         C
e|------0-0-0-2-0-------------------------------------|
B|--0-3-----------3---0--------------0-0-0-------0-0--|
G|------------------2---2-0-2----0-2-------2-0--------| 
A|---------------------------------------------2------|
D|----------------------------------------------------|
E|----------------------------------------------------|
        Em         D                Em       D     Em
e|------0-0-0-2-0-------------------------------------|
B|--0-3-----------3---0-------------------------------|
G|------------------2---2-0-2----2-0-----0------------| 
A|-----------------------------------2-2-----4-2-0-2--|
D|----------------------------------------------------|
E|----------------------------------------------------|
Suggest correction
Creating personal tab
Creating personal tab
You can edit any tab online and save it as your Personal.

You can edit, replace or remove any tab part or add personal notes – all changes will be seen only by you.

Personal tabs can be accessed anytime from any device, even offline.
Learn more »
Give kudos to tab author, rate the tab!
1 2 3 4 5
comments
print report bad tab
guest
You may want to rate the tab now too:
select rating
Wanna post a correction for this tab? Suggest correction