Oops, an error
Loading. Please wait.

The Battle Of Nowhere chords

version 2
version 2

Whole song

247 views 1 this week
no commentswrite comment
1 2 3 4 5
2 more votes to show rating
add to favorites
×
Save as Personal and add changes to this tab that will be seen only by you. Learn more ›
×
You can save this tab as Personal to edit and correct it or add notes. All changes will be seen only by you. Learn more »
launch autoscroll
font size
0
reset
transpose
0
reset
simplify chords
display chords
guitar tuner
edit
Autoscroll
slow
fast
+/-
esc
set tempo
stop
Strumming
There is no strumming pattern for this song yet. and get +5 IQ
signature 3/4    
tempo 105 bpm

intro:

|------------------------|--------------|------------------------|--------------|
|----------------1-------|3-------------|----------------1-------|3-------------|
|--------2---------------|--------------|--------2---------------|--------------|
|----2---------------2---|--------------|----2---------------2---|--------------|
|0-----------0-----------|--------------|0-----------0-----------|--------------|
|------------------------|--------------|------------------------|--------------|

|--------------|-------------|--------------|------------|------------|---------|
|--------1-----|3-1-0-1-0----|--------------|--------1---|3-1-0-1-0---|---------|
|----2---------|-----------2-|--------------|----2-------|----------2-|0--------|
|--2-------2---|-------------|4/5\4-2-----2-|--2-------2-|------------|---------|
|0-----0-------|-------------|--------------|0-----0-----|------------|---------|
|--------------|-------------|--------0-3---|------------|------------|---------|

         Am        Am/C     G         Am
T'is the loathsome right of lions and lords
   F                      G
To visit their might upon lambs
   Am          Em     Dm           Am
Oh butcher and beast, tyrant and cabal
  G    F       G  Am
I am a lion no longer

------- lower part of intro -------

    Am         Am/C      G           Am
For empire and flag, for captain and king
  F                      G
I offered no quarter nor mercy
Am             Em        Dm                Am
Spurred by the rage of a thousand vengeful gods
    G          F      G   Am
And blinded by men of ambition

------- lower part of intro -------

| F    | F    | G   | Am |
| F    | F    | G   | G  |
| Am   | Am/C | G/H | Am |
| Am   | Am/C | G   | G  |

------- lower part of intro -------

Am        Am/C   G            Am
Such industry is violence and war!
            F                     G
And how the ends are not all they claim
Am        Em            Dm          Am 
Righteous crusades bear bullion and control
    G           F          G Am
And garnish the blood of a nation


|------------|------------|3-3-3-3-3-3-|
|--------1---|3-1-0-1-0---|3-3-3-3-3-3-|
|----2-------|----------2-|0-0-0-0-0-0-|
|--2-------2-|------------|0-0-0-0-0-0-|      x4
|0-----0-----|------------|2-2-2-2-2-2-|
|------------|------------|3-3-3-3-3-3-|


   Am         Am/C       G      Am
So beware the promise of exotic frontiers
          F                    G
Where the battle of nowhere is waged
      Am      Em       Dm         Am
Where patriot sons are put to the sword
    G           F             G Am
And lost in the strains of an anthem


| C  | C | D | Em |
| C  | C | D | D  |
| Em | G | D | Em | Em |
| C  | C | D | Em | Em |

| C  | C | D | Em |
| C  | C | D | D  |
| Em | G | D | Em | Em |
| C  | G | D | Em | Em |
| C  | C | D | G  |

            
            
Suggest correction
Creating personal tab
Creating personal tab
You can edit any tab online and save it as your Personal.

You can edit, replace or remove any tab part or add personal notes – all changes will be seen only by you.

Personal tabs can be accessed anytime from any device, even offline.
Learn more »
Give kudos to tab author, rate the tab!
1 2 3 4 5
comments
print report bad tab
guest
You may want to rate the tab now too:
select rating
Wanna post a correction for this tab? Suggest correction