Oops, an error
Loading. Please wait.

Ent Tab

7 views 3 this week
no commentswrite comment
1 2 3 4 5
3 more votes to show rating
add to favorites
launch autoscroll
font size
0
reset
how to read this tab
guitar tuner
Autoscroll
slow
fast
+/-
esc
set tempo
stop
Help us to improve Ultimate-Guitar.com Take our survey!
×
Author
Difficulty
Tuning
novice
D A D G B E
About this tab version
Tabbed out the guitar with chords as well, accurate to studio version of song. Was this info helpful? Yes No
This is the best and penultimate song on Julien Baker's band 'The Star Killers's album 'American Blues.'
the tab is relatively simple but you've got to know the rhythm. you could probably play this with chords
as well so I've noted them down as well.


[Intro]

   B           G             D      F#m
e|---------------------------------------------------------------|
B|---------------------------------------------------------------|
G|---------------------------------------------------------------|
D|---------------------------------------------------------------|
A|-----12---9--------7---7/9-----9--------4---4/5----------------| 
D|-9-9----9----5-5-5---5-----0-0----4-4-4---4--------------------|(x16)


[Intro Pt.2]

   B       D          G      F#m
e|---------------------------------------------------------------|
B|---------------------------------------------------------------|
G|---------------------------------------------------------------|
D|-9-9-9-9-12-12-12---5-5-5-5-4-4-4------------------------------|
A|-9-9-9-9-12-12-12---5-5-5-5-4-4-4------------------------------| 
D|-9-9-9-9-12-12-12---5-5-5-5-4-4-4------------------------------|(x7)

   A               Bb
e|---------------------------------------------------------------|
B|---------------------------------------------------------------|  this is played to lead into the next part
G|---------------------------------------------------------------|
D|-7-7-7-7-7-7-7-7-8-8-8-8-8-8-8-8-------------------------------|
A|-7-7-7-7-7-7-7-7-8-8-8-8-8-8-8-8-------------------------------|
D|-7-7-7-7-7-7-7-7-8-8-8-8-8-8-8-8-------------------------------|


[Section A]

  Harrow     me    down,            I      only    speak when you pull on my leaves
   B               G               D               F#m
e|------------------------------------------------------------------|
B|------------------------------------------------------------------|
G|------------------------------------------------------------------|
D|-9-9-9-9-9-9-9-9-5-5-5-5-5-5-5-5-0-0-0-0-0-0-0-0-4-4-4-4-4-4-4-4--|
A|-9-9-9-9-9-9-9-9-5-5-5-5-5-5-5-5-0-0-0-0-0-0-0-0-4-4-4-4-4-4-4-4--| 
D|-9-9-9-9-9-9-9-9-5-5-5-5-5-5-5-5-0-0-0-0-0-0-0-0-4-4-4-4-4-4-4-4--|(x4)


[Section B]

  I know I've built this anchor....
   D               F#m             B               G
e|-----------------------------------------------------------------|
B|-----------------------------------------------------------------|
G|-----------------------------------------------------------------|
D|-0-0-0-0-0-0-0-0-4-4-4-4-4-4-4-4-9-9-9-9-9-9-9-9-5-5-5-5-5-5-5-5-| this section repeats until the end.
A|-0-0-0-0-0-0-0-0-4-4-4-4-4-4-4-4-9-9-9-9-9-9-9-9-5-5-5-5-5-5-5-5-|
D|-0-0-0-0-0-0-0-0-4-4-4-4-4-4-4-4-9-9-9-9-9-9-9-9-5-5-5-5-5-5-5-5-|

************************************

| /  Slide up

************************************
Suggest correction
Give kudos to tab author, rate the tab!
1 2 3 4 5
comments
print report bad tab
guest
You may want to rate the tab now too:
select rating
Wanna post a correction for this tab? Suggest correction