Oops, an error
Loading. Please wait.

Bedroom Talk Tab

version 1
version 1

Whole song

Interactive

15,066 views 3 this week
3 commentsread comments
1 2 3 4 5
accurate
x 8
add to favorites
launch autoscroll
font size
0
reset
how to read this tab
guitar tuner
Tab Pro tools
  • play this tab
  • loop segment
  • change instrument
  • show fretboard
  • metronome
×
Best way to learn
"Bedroom Talk"
Autoscroll
slow
fast
+/-
esc
set tempo
stop
Inrto/chrous
Guitar 1
E|----------------------------------------|
B|----------------------------------------|
G|----------------------------------------|
D|8888888888888888----5555555555555555----|
A|8888888888888888----5555555555555555----|
E|6666666666666666----3333333333333333----|

Guitar 2
E|----------------------------------------|
B|----------------------------------------|
G|3/555/3/555/3/5/7/5/3-------------------|
D|x-xxx-x-xxx-x-x-x-x-x-------------------|
A|1/333/1/333/1/3/5/3/1-------------------|
E|----------------------------------------|
                                        X2

Guitar 1
E|----------------------------------------|
B|----------------------------------------|
G|--------------------8888888888888888----|
D|3333333333333333----8888888888888888----|
A|3333333333333333----6666666666666666----|
E|1111111111111111------------------------|

Guitar 2
E|-----------------------------------------|
B|-----------------------------------------|
G|10/7/12/10/7/12/10/7/12/10/7777----------|
D|x--x-x--x--x-x--x--x-x--x--xxxx----------|
A|8-/5/10/8-/5/10/8-/5/10/8-/5555----------|
E|-----------------------------------------|

E|----------------------------------------|
B|----------------------------------------|
G|3/555555/3/5/3/5/7/5/3------------------|
D|x xxxxxx x x x x x x x------------------|
A|1/333333/1/3/1/3/5/3/1------------------|
E|----------------------------------------|
                Let Ring...................

Verse 1
Just bass and guitar 1 for 2 bars then
guitar 2 comes in for another 2 bars!
Guitar 1
E|----------------------------------------|
B|----------------------------------------|
G|--3--3--3--3--3--3--3--3----------------|
D|----------------------------------------|
A|11-11-11-11-11-11-11-11-----------------|
E|----------------------------------------|
                                        X4

Guitar 2
E|----------------------------------------|
B|----------------------------------------|
G|------------55555555----88888888--------|
D|88888888----55555555----88888888--------|
A|88888888----33333333----66666666--------|
E|66666666--------------------------------|
pm................................      X2

Guitar 1
E|----------------------------------------|
B|----------------------------------------|
G|7/10/5---7/10/3---7/10/5----------------|
D|x-x--x---x-x--x---x-x--x----------------|
A|5/8-/3---5/8-/1---5/8-/3----------------|
E|----------------------------------------|

E|----------------------------------------|
B|----------------------------------------|
G|7/10/3/55/333---------------------------|
D|x-x--x-xx-xxx---------------------------|
A|5/8-/1/33/111---------------------------|
E|----------------------------------------|

Guitar 2
E|----------------------------------------|
B|----------------------------------------|
G|xx--xx---7/10/7/5-----------------------|
D|xx--xx---x-x--x-x-----------------------|
A|xx--xx---5/8-/5/3-----------------------|
E|xx--xx----------------------------------|

E|----------------------------------------|
B|----------------------------------------|
G|7/10/5/3--7/10/7/5----------------------|
D|x-x--x-x--x-x--x-x----------------------|
A|5/8-/3/1--5/8-/5/3----------------------|
E|----------------------------------------|

E|----------------------------------------|
B|----------------------------------------|
G|--3333333333333-------------------------|
D|--xxxxxxxxxxxxx-------------------------|
A|--1111111111111-------------------------|
E|----------------------------------------|

Chorus
Guitar 1
E|----------------------------------------|
B|----------------------------------------|
G|----------------------------------------|
D|8888888888888888----5555555555555555----|
A|8888888888888888----5555555555555555----|
E|6666666666666666----3333333333333333----|

Guitar 2
E|----------------------------------------|
B|----------------------------------------|
G|3/555/3/555/3/5/7/5/3-------------------|
D|x-xxx-x-xxx-x-x-x-x-x-------------------|
A|1/333/1/333/1/3/5/3/1-------------------|
E|----------------------------------------|
                                        X2

Guitar 1
E|----------------------------------------|
B|----------------------------------------|
G|--------------------8888888888888888----|
D|3333333333333333----8888888888888888----|
A|3333333333333333----6666666666666666----|
E|1111111111111111------------------------|

Guitar 2
E|-----------------------------------------|
B|-----------------------------------------|
G|10/7/12/10/7/12/10/7/12/10/7777----------|
D|x--x-x--x--x-x--x--x-x--x--xxxx----------|
A|8-/5/10/8-/5/10/8-/5/10/8-/5555----------|
E|-----------------------------------------|

E|----------------------------------------|
B|----------------------------------------|
G|3/555555/3/5/3/5/7/5/3------------------|
D|x xxxxxx x x x x x x x------------------|
A|1/333333/1/3/1/3/5/3/1------------------|
E|----------------------------------------|
                Let Ring...................

Verse 2
Just guitar 1 for 2 bars then
guitar 2 and bass for another 2 bars!
Guitar 1
E|----------------------------------------|
B|----------------------------------------|
G|------------55555555----88888888--------|
D|88888888----55555555----88888888--------|
A|88888888----33333333----66666666--------|
E|66666666--------------------------------|
pm................................      X4
last time not palm muted!

Guitar 2
E|----------------------------------------|
B|----------------------------------------|
G|33333333----333333335555555588888888----|
D|xxxxxxxx----xxxxxxxxxxxxxxxxxxxxxxxx----|
A|11111111----111111113333333366666666----|
E|----------------------------------------|

Guitar 2
E|----------------------------------------|
B|----------------------------------------|
G|--88888888------------------------------|
D|--xxxxxxxx------------------------------|
A|--66666666------------------------------|
E|----------------------------------------|


Guitar 1
E|----------------------------------------|
B|----------------------------------------|
G|7/10/5---7/10/3---7/10/5----------------|
D|x-x--x---x-x--x---x-x--x----------------|
A|5/8-/3---5/8-/1---5/8-/3----------------|
E|----------------------------------------|

E|----------------------------------------|
B|----------------------------------------|
G|7/10/3/55/333---------------------------|
D|x-x--x-xx-xxx---------------------------|
A|5/8-/1/33/111---------------------------|
E|----------------------------------------|

Guitar 2
E|----------------------------------------|
B|----------------------------------------|
G|xx--xx---7/10/7/5-----------------------|
D|xx--xx---x-x--x-x-----------------------|
A|xx--xx---5/8-/5/3-----------------------|
E|xx--xx----------------------------------|

E|----------------------------------------|
B|----------------------------------------|
G|7/10/5/3--7/10/7/5----------------------|
D|x-x--x-x--x-x--x-x----------------------|
A|5/8-/3/1--5/8-/5/3----------------------|
E|----------------------------------------|

E|----------------------------------------|
B|----------------------------------------|
G|--3333333333333-------------------------|
D|--xxxxxxxxxxxxx-------------------------|
A|--1111111111111-------------------------|
E|----------------------------------------|

Chorus
Guitar 1
E|----------------------------------------|
B|----------------------------------------|
G|----------------------------------------|
D|8888888888888888----5555555555555555----|
A|8888888888888888----5555555555555555----|
E|6666666666666666----3333333333333333----|

Guitar 2
E|----------------------------------------|
B|----------------------------------------|
G|3/555/3/555/3/5/7/5/3-------------------|
D|x-xxx-x-xxx-x-x-x-x-x-------------------|
A|1/333/1/333/1/3/5/3/1-------------------|
E|----------------------------------------|
                                        X2

Guitar 1
E|----------------------------------------|
B|----------------------------------------|
G|--------------------8888888888888888----|
D|3333333333333333----8888888888888888----|
A|3333333333333333----6666666666666666----|
E|1111111111111111------------------------|

Guitar 2
E|-----------------------------------------|
B|-----------------------------------------|
G|10/7/12/10/7/12/10/7/12/10/7777----------|
D|x--x-x--x--x-x--x--x-x--x--xxxx----------|
A|8-/5/10/8-/5/10/8-/5/10/8-/5555----------|
E|-----------------------------------------|

E|----------------------------------------|
B|----------------------------------------|
G|3/555555/3/5/3/5/7/5/3------------------|
D|x xxxxxx x x x x x x x------------------|
A|1/333333/1/3/1/3/5/3/1------------------|
E|----------------------------------------|
                Let Ring..................

Bridge
(Bass Starts and Guitar 2 start)
Guitar 1
E|----------------------------------------|
B|----------------------------------------|
G|------55555555--------------55555555----|
D|5x7x8x55555555--555-777-888-55555555----|
A|5x7x8x33333333--555-777-888-33333333----|
E|3x5x6x----------333-555-666-------------|

Guitar 2
E|----------------------------------------|
B|----------------------------------------|
G|-----------------------------55555555---|
D|3333333333333333-555-777-888-xxxxxxxx---|
A|3333333333333333-xxx-xxx-xxx-33333333---|
E|1111111111111111-333-555-666------------|
pm................

Guitar 1
E|----------------------------------------|
B|----------------------------------------|
G|3333333333333333------------------------|
D|3333333333333333-55555555-33333333------|
A|1111111111111111-55555555-33333333------|
E|-----------------33333333-11111111------|

Guitar 2
E|----------------------------------------|
B|----------------------------------------|
G|5-x-8-x-12--7-x-8-x-5--5-x-8-x-12-------|
D|x-x-x-x--x--x-x-x-x-x--x-x-x-x--x-------|
A|3-x-6-x-10--5-x-6-x-3--3-x-6-x-10-------|
E|----------------------------------------|

Guitar 1
E|----------------------------------------|
B|----------------------------------------|
G|5555555555555555---------8--------------|
D|5555555555555555-5-x-3-x-8--------------|
A|3333333333333333-5-x-3-x-6--------------|
E|-----------------3-x-1-x----------------|
                   Let ring...............
Guitar 2
E|----------------------------------------|
B|----------------------------------------|
G|5-x-8-x-12--5----7----3-----------------|
D|x-x-x-x--x--x----x----x-----------------|
A|3-x-6-x-10--3----5----1-----------------|
E|----------------------------------------|
                Let ring..................

Slow part
Guitar 1
E|----------------------------------------|
B|----------------------------------------|
G|----------------------------------------|
D|8888888888888888----5555555555555555----|
A|8888888888888888----5555555555555555----|
E|6666666666666666----3333333333333333----|
pm........................................
E|----------------------------------------|
B|----------------------------------------|
G|--------------------8888888888888888----|
D|3333333333333333----8888888888888888----|
A|3333333333333333----6666666666666666----|
E|1111111111111111------------------------|
pm........................................

Chorus
Guitar 1
E|----------------------------------------|
B|----------------------------------------|
G|----------------------------------------|
D|8888888888888888----5555555555555555----|
A|8888888888888888----5555555555555555----|
E|6666666666666666----3333333333333333----|

Guitar 2
E|----------------------------------------|
B|----------------------------------------|
G|3/555/3/555/3/5/7/5/3-------------------|
D|x-xxx-x-xxx-x-x-x-x-x-------------------|
A|1/333/1/333/1/3/5/3/1-------------------|
E|----------------------------------------|
                                        X2

Guitar 1
E|----------------------------------------|
B|----------------------------------------|
G|--------------------8888888888888888----|
D|3333333333333333----8888888888888888----|
A|3333333333333333----6666666666666666----|
E|1111111111111111------------------------|

Guitar 2
E|-----------------------------------------|
B|-----------------------------------------|
G|10/7/12/10/7/12/10/7/12/10/7777----------|
D|x--x-x--x--x-x--x--x-x--x--xxxx----------|
A|8-/5/10/8-/5/10/8-/5/10/8-/5555----------|
E|-----------------------------------------|

E|----------------------------------------|
B|----------------------------------------|
G|3/555555/3/5/3/5/7/5/3------------------|
D|x xxxxxx x x x x x x x------------------|
A|1/333333/1/3/1/3/5/3/1------------------|
E|----------------------------------------|
                Let Ring..................

Guitar 1
ends on
E|----------------------------------------|
B|----------------------------------------|
G|----------------------------------------|
D|------8---------------------------------|
A|------8---------------------------------|
E|------6---------------------------------|
Let Ring..................................

I hope all the TSL fans out there apprieciate
the time and effort that went into this tab!
Even though ok no all of its correct! lol
Danny Toone 2005
comments
print report bad tab
3 comments total.
0 reply
bc2skaterpunk wrote on May 9 2005, 12:00 am

actually first verse goes
e|-----------------------------
B|-----------------------------
G|--3---3----3-3---3--3--3---3-
D|-----------------3--3--3---3-
A|-1--1----3--3----------------
E|---------------3--3---1--1---

0 reply
Darkk wrote on May 20 2005, 12:00 am

Umm just let you guys all know, everything is tuned down a half step...
so it's Eb, Ab, Db, Gb, Bb and Eb.

0 reply
wshnationals wrote on October 12 2007, 07:21 pm

the lead doesnt sound right

I want to post or [tab]
guest
You may want to rate the tab now too:
select rating
Please do not post tabs as comments. Select "correction" instead!