Oops, an error
Loading. Please wait.

Bedroom Talk bass

version 2
version 2

Whole song

Interactive

55 views 1 this week
no commentswrite comment
1 2 3 4 5
3 more votes to show rating
add to favorites
×
Save as Personal and add changes to this tab that will be seen only by you. Learn more ›
×
You can save this tab as Personal to edit and correct it or add notes. All changes will be seen only by you. Learn more »
launch autoscroll
font size
0
reset
guitar tuner
edit
Autoscroll
slow
fast
+/-
esc
set tempo
stop
---------------------------------------------------------------------------
                      BEDROOM TALK - The Starting Line
---------------------------------------------------------------------------
Tabbed by: KGKing13 
E-mail: KGaul95@hotmail.com

Tuning: Drop D

Intro
G|-----------------------------------------------------------------|
D|-----------------------------------------------------------------|
A|-1-1-1-1-1-1-1-1-1-1-1-1-1-1-1-0---------------------------------|
D|---------------------------------5-5-5-5-5-5-5-5-5-5-5-5-5-5-5-0-|
   1 + 2 + 3 + 4 + 1 + 2 + 3 + 4 + 1 + 2 + 3 + 4 + 1 + 2 + 3 + 4 +

G|-----------------------------------------------------------------|
D|-----------------------------------------------------------------|
A|-6-6-6-6-6-6-6-6-6-6-6-6-6-6-6-6-------------------6-6-6-6-6-6-6-|
D|---------------------------------3-3-3-3-3-3-3-3-----------------|
   1 + 2 + 3 + 4 + 1 + 2 + 3 + 4 + 1 + 2 + 3 + 4 + 1 + 2 + 3 + 4 +


1st Verse (0:30)
G|-----------------------------------------------------------------|
D|-----------------------------------------------------------------|
A|-1~--------------------------------------------------------------|
E|-----------------------------------------------------------------|
   1 + 2 + 3 + 4 + 1 + 2 + 3 + 4 + 1 + 2 + 3 + 4 + 1 + 2 + 3 + 4 +

G|-----------------------------------------------------------------|
D|-----------------------------------------------------------------|
A|-----------------------------------------------------------------|
E|-----------------------------------------------------------------|
   1 + 2 + 3 + 4 + 1 + 2 + 3 + 4 + 1 + 2 + 3 + 4 + 1 + 2 + 3 + 4 +

G|-----------------------------------------------------------------|
D|-----------------------------------------------------------------|
A|-1-1-1-1-1-1-1-1-3-3-3-3-3-3-3-3-6-6-6-6-6-6-6-6-6-6-6-6-6-6-6-6-|
D|-----------------------------------------------------------------|
   1 + 2 + 3 + 4 + 1 + 2 + 3 + 4 + 1 + 2 + 3 + 4 + 1 + 2 + 3 + 4 +

G|-----------------------------------------------------------------|
D|-----------------------------------------------------------------|
A|-1-1-1-1-1-1-1-1-3-3-3-3-3-3-3-3-6-6-6-6-6-6-6-6-6-6-6-6---------|
D|-----------------------------------------------------------------|
   1 + 2 + 3 + 4 + 1 + 2 + 3 + 4 + 1 + 2 + 3 + 4 + 1 + 2 + 3 + 4 +

Pre Chorus
G|-----------------------------------------------------------------|
D|---------------------------------------------------------3-------|
A|-----------------------------------------------------3-5-----5-3-|
D|-0-0---1-1---3-3~----------------1-1---3-3---5-5~----------------|
   1 + 2 + 3 + 4 + 1 + 2 + 3 + 4 + 1 + 2 + 3 + 4 + 1 + 2 + 3 + 4 +

G|-----------------------------------------------------------|
D|-----------------------------------------------------------|
A|-----------------------------------------------------------|
D|-0-0---1-1---3-3-----------------5-5-5-3-3-3-1-1-1-1-1-1-1-|
   1 + 2 + 3 + 4 + 1 + 2 + 3 + 4 + 1 + 2 + 3 + 4 + 1 + 2 + 3 


1st Chorus
G|-----------------------------------------------------------------|
D|-----------------------------------------------------------------|
A|-1-1-1-1-1-1-1-1-1-1-1-1-1-1-1-0---------------------------------|
D|---------------------------------5-5-5-5-5-5-5-5-5-5-5-5-5-5-5-0-|
   1 + 2 + 3 + 4 + 1 + 2 + 3 + 4 + 1 + 2 + 3 + 4 + 1 + 2 + 3 + 4 +

G|---------------------------------------------------------------|
D|---------------------------------------------------------------|
A|-6-6-6-6-6-6-6-6-6-6-6-6-6-6-6-6-----------------6~--------6-6-|
D|---------------------------------3-3-3-3-3-3-3-3---------------|
   1 + 2 + 3 + 4 + 1 + 2 + 3 + 4 + 1 + 2 + 3 + 4 + 1 + 2 + 3 + 4 


2nd Verse (start after guitar palm-muting)
G|-----------------------------------------------------------------|
D|-----------------------------------------------------------------|
A|-----------------------------------------------------------------|
E|-----------------------------------------------------------------|
   1 + 2 + 3 + 4 + 1 + 2 + 3 + 4 + 1 + 2 + 3 + 4 + 1 + 2 + 3 + 4 +

G|-----------------------------------------------------------------|
D|-----------------------------------------------------------------|
A|-----------------------------------------------------------------|
E|-----------------------------------------------------------------|
   1 + 2 + 3 + 4 + 1 + 2 + 3 + 4 + 1 + 2 + 3 + 4 + 1 + 2 + 3 + 4 +

G|-----------------------------------------------------------------|
D|-----------------------------------------------------------------|
A|-1-1-1-1-1-1-1-1-3-3-3-3-3-3-3-3-6-6-6-6-6-6-6-6-6-6-6-6-6-6-6-6-|
D|-----------------------------------------------------------------|
   1 + 2 + 3 + 4 + 1 + 2 + 3 + 4 + 1 + 2 + 3 + 4 + 1 + 2 + 3 + 4 +

G|-----------------------------------------------------------------|
D|-----------------------------------------------------------------|
A|-1-1-1-1-1-1-1-1-3-3-3-3-3-3-3-3-6-6-6-6-6-6-6-6-6-6-6-6---------|
D|-----------------------------------------------------------------|
   1 + 2 + 3 + 4 + 1 + 2 + 3 + 4 + 1 + 2 + 3 + 4 + 1 + 2 + 3 + 4 +


Pre Chorus
G|-----------------------------------------------------------------|
D|---------------------------------------------------------3-------|
A|-----------------------------------------------------3-5-----5-3-|
D|-0-0---1-1---3-3~----------------1-1---3-3---5-5~----------------|
   1 + 2 + 3 + 4 + 1 + 2 + 3 + 4 + 1 + 2 + 3 + 4 + 1 + 2 + 3 + 4 +

G|-----------------------------------------------------------|
D|-----------------------------------------------------------|
A|-----------------------------------------------------------|
D|-0-0---1-1---3-3-----------------5-5-5-3-3-3-1-1-1-1-1-1-1-|
   1 + 2 + 3 + 4 + 1 + 2 + 3 + 4 + 1 + 2 + 3 + 4 + 1 + 2 + 3


2nd Chorus
G|-----------------------------------------------------------------|
D|-----------------------------------------------------------------|
A|-1-1-1-1-1-1-1-1-1-1-1-1-1-1-1-0---------------------------------|
D|---------------------------------5-5-5-5-5-5-5-5-5-5-5-5-5-5-5-0-|
   1 + 2 + 3 + 4 + 1 + 2 + 3 + 4 + 1 + 2 + 3 + 4 + 1 + 2 + 3 + 4 +

G|-----------------------------------------------------------------|
D|-----------------------------------------------------------------|
A|-6-6-6-6-6-6-6-6-6-6-6-6-6-6-6-6-------------------6-6-6-6-6-6-6-|
D|---------------------------------3-3-3-3-3-3-3-3-----------------|
   1 + 2 + 3 + 4 + 1 + 2 + 3 + 4 + 1 + 2 + 3 + 4 + 1 + 2 + 3 + 4 +

G|--------------------------------------------------------------------|
D|-----------------------------------------------------------8--------|
A|-1-1-1-1-1-1-1-1-1-1-1-1-1-1-1-0-------------10-8-8---10-------10---|
D|---------------------------------5-5-5-5-5-5------------------------|
   1 + 2 + 3 + 4 + 1 + 2 + 3 + 4 + 1 + 2 + 3 + 4  + 1 + 2  + 3 + 4  +

G|-----------------------------------------------------------------|
D|-----------------------------------------------------------------|
A|-6-6-6-6-6-6-6-6-6-6-6-6-6-6-6-6-------------------6-6-6-6-6-6-6-|
D|---------------------------------3-3-3-3-3-3-3-3-----------------|
   1 + 2 + 3 + 4 + 1 + 2 + 3 + 4 + 1 + 2 + 3 + 4 + 1 + 2 + 3 + 4 +


Bridge
G|------------------------------------------------------------------------|
D|------------------------------------------------------------------------|
A|------------------------------------------------------------------------|
D|-3-3-3-3-3-3-3-3-3-3-3-3-3-3-3-3-5-5-5-7-7-7-8-8-8-10-10-10-10-10-10-10-|
   1 + 2 + 3 + 4 + 1 + 2 + 3 + 4 + 1 + 2 + 3 + 4 + 1 +  2  +  3  +  4  +

G|-----------------------------------------------------------------|
D|-----------------------------------------------------------------|
A|---------------------------------------0-0-0-1-1-1-3-3-3-3-3-3-3-|
D|-3-3-3-3-3-3-3-3-3-3-3-3-3-3-3-3-5-5-5---------------------------|
   1 + 2 + 3 + 4 + 1 + 2 + 3 + 4 + 1 + 2 + 3 + 4 + 1 + 2 + 3 + 4 +

G|---------3-------------3-----------------------------------------|
D|-----1-------1-----1-------1-------------------------------------|
A|-3-------------3---------------------------3-5-----------3-5-3-1-|
D|-------------------------------3-5-5-5-5-5-----3---3-3-3---------|
   1 + 2 + 3 + 4 + 1 + 2 + 3 + 4 + 1 + 2 + 3 + 4 + 1 + 2 + 3 + 4 +

G|---------3-------------3-----------------------|
D|-----1-------1-----1-------1-------------------|
A|-3-------------3---------------3---------------|
D|---------------------------------3-----3-----1~|
   1 + 2 + 3 + 4 + 1 + 2 + 3 + 4 + 1 + 2 + 3 + 4 


Interlude
(Don't Play until 3:05 in)
G|-------------|
D|-------------|
A|-------------|
D|-1-1-1-1-1-1-|
   1 + 2 + 3 + 


Final Chorus
G|-----------------------------------------------------------------|
D|-----------------------------------------------------------------|
A|-1-1-1-1-1-1-1-1-1-1-1-1-1-1-1-0---------------------------------|
D|---------------------------------5-5-5-5-5-5-5-5-5-5-5-5-5-5-5-0-|
   1 + 2 + 3 + 4 + 1 + 2 + 3 + 4 + 1 + 2 + 3 + 4 + 1 + 2 + 3 + 4 +

G|-----------------------------------------------------------------|
D|-----------------------------------------------------------------|
A|-6-6-6-6-6-6-6-6-6-6-6-6-6-6-6-6-------------------6-6-6-6-6-6-0-|
D|---------------------------------3-3-3-3-3-3-3-3-----------------|
   1 + 2 + 3 + 4 + 1 + 2 + 3 + 4 + 1 + 2 + 3 + 4 + 1 + 2 + 3 + 4 +

G|--------------------------------------------------------------------|
D|-----------------------------------------------------------8--------|
A|-1-1-1-1-1-1-1-1-1-1-1-1-1-1-1-0-------------10-8-8---10-------10---|
D|---------------------------------5-5-5-5-5-5------------------------|
   1 + 2 + 3 + 4 + 1 + 2 + 3 + 4 + 1 + 2 + 3 + 4  + 1 + 2  + 3 + 4  +

G|-----------------------------------------------------------------|
D|-----------------------------------------------------------------|
A|-6-6-6-6-6-6-6-6-6-6-6-6-6-6-6-6-------------------6-6-6-6-6-6-6-|
D|---------------------------------3-3-3-3-3-3-3-3-----------------|
   1 + 2 + 3 + 4 + 1 + 2 + 3 + 4 + 1 + 2 + 3 + 4 + 1 + 2 + 3 + 4 +

G|-----------------------------------------------------------------|
D|-----------------------------------------------------------------|
A|-1-1-1-1-1-1-1-1-1-1-1-1-1-1-1-0---------------------------------|
D|---------------------------------5-5-5-5-5-5-5-5-5-5-5-5-5-5-5-0-|
   1 + 2 + 3 + 4 + 1 + 2 + 3 + 4 + 1 + 2 + 3 + 4 + 1 + 2 + 3 + 4 +    
                                                      
G|---------------------------------------------------|
D|---------------------------------------------------|
A|-6-6-6-6-6-6-6-6-6-6-6-6-6-6-6-6-------------------|
D|---------------------------------3-3-3-3-3-3-3-3---|
   1 + 2 + 3 + 4 + 1 + 2 + 3 + 4 + 1 + 2 + 3 + 4 + 1 


Outro (slow strum)
G|-------------------|
D|-------------------|
A|-6-6-6-6-6----0--1~|
D|-----------5-------|
   + 2 + 3 + 4  +  1

| /  slide up
| \  slide down
| h  hammer-on
| p  pull-off
| ~  vibrato
| +  harmonic
| x  Mute note
===========================================================================
Suggest correction
Creating personal tab
Creating personal tab
You can edit any tab online and save it as your Personal.

You can edit, replace or remove any tab part or add personal notes – all changes will be seen only by you.

Personal tabs can be accessed anytime from any device, even offline.
Learn more »
Give kudos to tab author, rate the tab!
1 2 3 4 5
comments
print report bad tab
guest
You may want to rate the tab now too:
select rating
Wanna post a correction for this tab? Suggest correction