Oops, an error
Loading. Please wait.

Best Of Me Bass Tab

version 1
version 1

Whole song

Interactive

3,134 views 9 this week
no commentswrite comment
1 2 3 4 5
please rate
add to favorites
launch autoscroll
font size
0
reset
guitar tuner
Tab Pro tools
  • play this tab
  • loop segment
  • change instrument
  • show fretboard
  • metronome
×
Best way to learn
"Best Of Me"
Autoscroll
slow
fast
+/-
esc
set tempo
stop
Contributor
Song: Best of Me
Band: Starting Line
Tabbed by: Gio Agudo


Intro II:
G|-----------------------------|
D|-----------------------------|
A|-77-----22-444--------44-222-|
E|----555--------55-555--------|


Verse I:
G|-----------------------------|
D|-----------------------------|
A|-----------------------------|
E|-555-555-555-555-555-555-555-|

G|---------------------------------|---------------|
D|---------------------------------|---------------|
A|-777-777-777-777-777-777-777-777-|---------------|
E|---------------------------------|-s555555555555-|

G|-------------------------------------------------|
D|-------------------------------------------------|
A|-777-777-777-777-777-777-777-777-777-777-777-777-|
E|-------------------------------------------------|


Refrain:
G|---------------------------------------------------|
D|---------------------------------------------------|
A|---------------------------------------------------|
E|-7s2-2222222-2s5-5555555--7s2222222-2s5-5-x-5-x-5x-|


Chorus:
G|-----------------------------|
D|-----------------------------|
A|-77-----22-444--------44-222-|
E|----555--------55-555--------|


Verse II:
G|-----------------------------|
D|-----------------------------|
A|-----------------------------|
E|-555-555-555-555-555-555-555-|

G|---7---7---7---7---7---7---7---7-|---------------|-----------------|
D|---------------------------------|---------------|-----------------|
A|-77--77--77--77--77--77--77--77--|---------------|-777-777-777-777-|
E|---------------------------------|-s555555555555-|-----------------|


Repeat Refrain and Chorus


Bridge:
G|------------|------------|
D|------------|------------|
A|------------|------------|
E|-2~--s5-5~--|-2~--s5-5~--|


Repeat Chorus
comments
We did not receive enough feedback on this tab! Please rate:
print report bad tab
1 2 3 4 5
I want to post or [tab]
guest
You may want to rate the tab now too:
select rating
Please do not post tabs as comments. Select "correction" instead!