Oops, an error
Loading. Please wait.

Best Of Me Tab

version 1
version 1

Intro

Whole song

Interactive

3,992 views 1 this week
no commentswrite comment
1 2 3 4 5
please rate
add to favorites
launch autoscroll
font size
0
reset
how to read this tab
guitar tuner
Tab Pro tools
  • play this tab
  • loop segment
  • change instrument
  • show fretboard
  • metronome
×
Best way to learn
"Best Of Me"
Autoscroll
slow
fast
+/-
esc
set tempo
stop
e|--------------------------------------------------------------------------|
B|--------------------------------------------------------------------------|
G|-9-9-9--2-2-2-2-2--4-4-4--2-2-2-2-2--2-2-2-2-2-2-2-2--2-2-2--4-4-4-4-4----|
D|-9-9-9--2-2-2-2-2--4-4-4--4-4-4-4-4--2-2-2-2-2-2-2-2--4-4-4--4-4-4-4-4----|
A|-7-7-7--0-0-0-0-0--2-2-2--2-2-2-2-2--0-0-0-0-0-0-0-0--2-2-2--2-2-2-2-2----|
E|-0-0-0--------------------------------------------------------------------|

e|--------------------------------------------------------------------------|
B|--------------------------------------------------------------------------|
G|-9-9-9--2-2-2-2-2--4-4-4--2-2-2-2-2--2-2-2-2-2-2-2-2--2-2-2--4-4-4-4-4----|
D|-9-9-9--2-2-2-2-2--4-4-4--4-4-4-4-4--2-2-2-2-2-2-2-2--4-4-4--4-4-4-4-4----|
A|-7-7-7--0-0-0-0-0--2-2-2--2-2-2-2-2--0-0-0-0-0-0-0-0--2-2-2--2-2-2-2-2----|
E|-0-0-0--------------------------------------------------------------------|

e|--------------|
B|-2--2-2-2-----|
G|-2--2-2-2-----|
D|-2--2-2-2-----|
A|-0--0-0-0-----|
E|--------------|

e|--------------------------------------------------------------------------|
B|--------------------------------------------------------------------------|
G|-1-1-1--2-2-2-2-2--4-4-4--6-6-6-6-6--2-2-2-2-2-2-2-2--6-6-6--4-4-4-4-4----|
D|-2-2-2--2-2-2-2-2--4-4-4--6-6-6-6-6--2-2-2-2-2-2-2-2--6-6-6--4-4-4-4-4----|
A|-2-2-2--0-0-0-0-0--2-2-2--4-4-4-4-4--0-0-0-0-0-0-0-0--4-4-4--2-2-2-2-2----|
E|--------------------------------------------------------------------------|

e|---------------------------------------------------------------------------|
B|---------------------------------------------------------------------------|
G|-1-1-1--2-2-2-2-2--4-4-4--6-6-6-6-6--2-2-2--2-2-2-2--6-6-6--4-4-4-4-4------|
D|-2-2-2--2-2-2-2-2--4-4-4--6-6-6-6-6--2-2-2--2-2-2-2--6-6-6--4-4-4-4-4------|
A|-2-2-2--0-0-0-0-0--2-2-2--4-4-4-4-4--0-0-0--0-0-0-0--4-4-4--2-2-2-2-2------|
E|---------------------------------------------------------------------------|
comments
We did not receive enough feedback on this tab! Please rate:
print report bad tab
1 2 3 4 5
I want to post or [tab]
guest
You may want to rate the tab now too:
select rating
Please do not post tabs as comments. Select "correction" instead!