Oops, an error
Loading. Please wait.

Best Of Me Tab

version 2
version 2

Whole song

Interactive

5,000 views 1 this week
3 commentsread comments
1 2 3 4 5
accurate
x 5
add to favorites
launch autoscroll
font size
0
reset
how to read this tab
guitar tuner
Tab Pro tools
  • play this tab
  • loop segment
  • change instrument
  • show fretboard
  • metronome
×
Best way to learn
"Best Of Me"
Autoscroll
slow
fast
+/-
esc
set tempo
stop
Difficulty
intermediate
The Starting Line
The Best of Me
Tabbed by: Shawn Irwin



Yea whats up i'm only 14 so this is the first tab i've ever done and i made it cause
i tried to learn this song from another tab but it didn't seem right so i made some
adjustments and here you go




Intro/Chorus
e-----------------------------------------------------------------|
B-----------------------------------------------------------------|
G-9-999-2-2222-4-444-6-6666-6-66-6-6666-6-66-4-4444----------2----|
D-9-999-2-2222-4-444-6-6666-6-66-6-6666-6-66-4-4444-x2--end--2----|
A-7-777-0-0000-2-222-4-4444-4-44-4-4444-4-44-2-2222------on--0----|
E-----------------------------------------------------------------|


Guitar 1 (guitar 2 plays intro in background)
e-----------------------------------------------------------------|
B-----------------------------------------------------------------|
G-13-16-11-9-99--11-9-9-9999---6-4-6-4444---9-9-8-9/8/9----end-9--|
D--x--x--x-x-xx---x-x-x-xxxx---x-x-x-xxxx---x-x-x-x-x-x-x2--on-x--|
A-11-14--9-7-77---9-7-7-7777---4-2-4-2222---7-7-6-7/6/7--------7--|
E-----------------------------------------------------------------|

e-----------------------------------------------------------------|
B-----------------------------------------------------------------|
G-13-16-11-9-99--11-9-9-9999---6-4-6-4444---9-9-8-8-8/9-9---end-9-|
D--x--x--x-x-xx---x-x-x-xxxx---x-x-x-xxxx---x-x-x-x-x-xx2--on-x---|
A-11-14--9-7-77---9-7-7-7777---4-2-4-2222---7-7-6-6-6/7-7-------7-|
E-----------------------------------------------------------------|



Verse ? Guitar 1
e---0---0---0---0---0---0---0---0---------------------------------|
B--0-0-0-0-0-0-0-0-0-0-0-0-0-0-0-0--------------------------------|
G-9---9---8---8---6---6---4---4-----------------------------------|
D-----------------------------------------------------------------|
A-----------------------------------------------------------------|
E-----------------------------------------------------------------|

Guitar 2
e-----------------------------------------------------------------|
B-----------------------------------------------------------------|
G-999------999------999-----999-----------------------------------|
D-999------999------999-----999-----------------------------------|
A-777------777------777-----777-----------------------------------|
E-----------------------------------------------------------------|


Part in verse with distortion
e-------------------------|
B-------------------------|
G-------------------------|
D--77777777---------------|
A--77777777---------------|
E--55555555---------------|


Pre-Chorus
e-----------------------------------------------------------------|
B-----------------------------------------------------------------|
G-----------------------------------------------------------------|
D-44444444-77777777-44444444-77777777-----------------------------|
A-44444444-77777777-44444444-77777777-----------------------------|
E-22222222-55555555-22222222-55555555-----------------------------|
comments
print report bad tab
3 comments total.
0 reply
thephotoalbum wrote on September 24 2006, 02:21 am

2 corrections. The intro goes like this..i just figured it out it took me 30 minutes so I know its right. I wont put in the strum pattern.
E|---------------------------------------------------------|
B|-----------4------------------------------------------4--|
G|--9--2--4--4--4--4--6--4-----2--4--6--2--2--6--4--2~--4--|
D|--9--2--4--2--4--4--6--4--2--2--4--6--2--2--6--4--2~--2--|
A|--7--0--2-----2--2--4--2--2--0--2--4--0--0--4--2--0~-----|
E|--------------------------0------------------------------|

and the chorus goes like this (once again no strumming pattern because it would take too long):

E|--------------------------------------------------------|
B|--------------------------------------------------------|
G|--13--16--11--9--9--4--9--13----9--6----9--8----9--9----|
D|--X---X---X---X--X--X--X--X-----X--X----X--X----X--X----|
A|--11--14--9---7--7--2--7--11----7--4----7--6----7--7----|
E|--------------------------------------------------------|

I think thatll do it. Nice job on the rest of the tab.

0 reply
thephotoalbum wrote on September 24 2006, 02:34 am

actually in the intro i just figured out that this sounds better instead of the finishing (2-4):
E|-----
B|--5--
G|--X--
D|--2--

That could be the other guitar however and the regular (2-4) sounds right too. Oh and it sounds better as a (2-4) rather than a (2-4-4). Sorry if thats confusing.

0 reply
Hrdcore wrote on February 1 2007, 05:37 pm

How do you play:
G-9
D-2
A-7
That's kind of a stretch, huh? Maybe you have some kind of interesting deformity (in which case i'd really like to meet you), but I wasn't blessed with that gift so that's not happening for me. And by the way, 14 year-olds can make a tab as well as anybody.

I want to post or [tab]
guest
You may want to rate the tab now too:
select rating
Please do not post tabs as comments. Select "correction" instead!