Oops, an error
Loading. Please wait.

Best Of Me Tab

version 3
version 3

Intro

Whole song

Interactive

6,013 views 9 this week
no commentswrite comment
1 2 3 4 5
accurate
x 5
add to favorites
launch autoscroll
font size
0
reset
how to read this tab
guitar tuner
Tab Pro tools
  • play this tab
  • loop segment
  • change instrument
  • show fretboard
  • metronome
×
Best way to learn
"Best Of Me"
Autoscroll
slow
fast
+/-
esc
set tempo
stop
Contributor
Intro
e|----------------------------------------------------------------|
b|----------------------------------------------------------------|
g|--1-11--2--2-2--4-44--4--4-4--2--22-2--22--6-66--4-44-44--------|
d|--2-22--2--2-2--4-44--2--2-2--2--22-2--22--6-66--4-44-44--------|
a|--2-22--0--0-0--2-22--4--4-4--0--00-0--00--4-44--2-22-22--x2----|
E|----------------------------------------------------------------|

on second time add
e|----------|
b|----------|
g|--2----222|
d|--2----222|
a|--0----000|
E|----------|

Chorus
Guitar 1 (guitar 2 plays intro in background)
e-----------------------------------------------------------------|
b-----------------------------------------------------------------|
g-13-12-11-9999---4-9-9-9999---9-9-6-4444---9-9-8-9/8/9----end-9--|
d--x--x--x-xxxx---x-x-x-xxxx---x-x-x-xxxx---x-x-x-x-x-x-x2--on-x--|
a-11-14--9-7777---2-7-7-7777---7-7-4-2222---7-7-6-7/6/7--------7--|
E-----------------------------------------------------------------|

I'll call this end chorus.
e|--------|
b|--------|
g|--2-----|
d|--2-----|
a|--0--x16|
E|--------|

verse(guitar 2)
e---0---0---0---0---0---0---0---0---------------------------------|
b--0-0-0-0-0-0-0-0-0-0-0-0-0-0-0-0--------------------------------|
g-9---9---8---8---6---6---4---4-----------------------------------|
d-----------------------------------------------------------------|
a-----------------------------------------------------------------|
E-----------------------------------------------------------------|

verse(guitar 1)
e-----------------------------------------------------------------|
B-----------------------------------------------------------------|
G-999------999------999-----999-----------------------------------|
D-999------999------999-----999-----------------------------------|
A-777------777------777-----777-----------------------------------|
E-----------------------------------------------------------------|

I'll call this a verse break Guitar 1 
e-------------------------|
b-------------------------|
g-------------------------|
d--77777777---------------|
a--77777777---------------|
E--55555555---------------|

Pre-Chorus
e-----------------------------------------------------------------|
b-----------------------------------------------------------------|
g-----------------------------------------------------------------|
d-44444444-77777777-44444444-77777777-----------------------------|
a-44444444-77777777-44444444-77777777-----------------------------|
E-22222222-55555555-22222222-55555555-----------------------------|

Slow riff Guitar 2
e---0---0---0---0---0---0---0-------------------------------------|
b--0---0---0---0---4---4---4--------------------------------------|
g-4---4---4---4---4---4---4---x4----------------------------------|
d-----------------------------------------------------------------|
a-----------------------------------------------------------------|
E-----------------------------------------------------------------|

Both guitars
e|----------------------------------------------------------------|
b|----------------------------------------------------------------|
g|--1-11--2--2-2--4-44--4--4-4--2--22-2--22--6-66--4-44-44--------|
d|--2-22--2--2-2--4-44--2--2-2--2--22-2--22--6-66--4-44-44--------|
a|--2-22--0--0-0--2-22--4--4-4--0--00-0--00--4-44--2-22-22--x2----|
E|----------------------------------------------------------------|

before outro
e|------------------|
b|------------------|
g|--6-66-4-4-4------|
d|--6-66-4-4-4------|
a|--4-44-2-2-2--x3--|
E|------------------|

Outro
e|----------------------------------------------------------------|
b|----------------------------------------------------------------|
g|--1-11--2--2-2--4-44--4--4-4--2--22-2--22--6-66--4-44-44--2-----|
d|--2-22--2--2-2--4-44--2--2-2--2--22-2--22--6-66--4-44-44--2-----|
a|--2-22--0--0-0--2-22--4--4-4--0--00-0--00--4-44--2-22-22--0-----|
E|----------------------------------------------------------------|

Order

Intro x1
Chorus x2
end chorus x16
verse x3
verse break x1
verse x3
pre-chorus x1
Both guitars play intro x2 
end chorus x16 
verse x3
verse break x1
verse x1
pre-chorus x1
Both guitars play intro x2
end chorus x16 
chorus x2
Slow riff x4
intro x2
before outro x3
end chorus x16
outro x1

If you practice this with the song you will be playing it perfectly.This is 100% correct.
comments
print report bad tab
I want to post or [tab]
guest
You may want to rate the tab now too:
select rating
Please do not post tabs as comments. Select "correction" instead!