Oops, an error
Loading. Please wait.

Decisions Decisions Bass Tab

version 1
version 1

Whole song

929 views 1 this week
2 commentsread comments
1 2 3 4 5
accurate
x 1
add to favorites
launch autoscroll
font size
0
reset
guitar tuner
Tab Pro tools
  • play this tab
  • loop segment
  • change instrument
  • show fretboard
  • metronome
Autoscroll
slow
fast
+/-
esc
set tempo
stop
By: Jenelle
The bass part is really easy to pick out in this song so if you listen good this
plays exactly along with it.  Play around with the effects, resting, and some of
the rhythms, but for the most part this matches perfectly and is pretty easy.
Email me with comments, questions, etc. Nelly91401@aol.com

Intro:
G|--------------------------------------------------------------------|
D|-555-000-222-----555-000-222--------000-222--------000-222----------|
A|-------------333-------------333------------333------------333-33-33|
E|---------------------------------33-------------33------------------|

Verse Type 1:
G|-------------|
D|----00-22----|
A|----------33-|
E|-33----------|

Verse Type 2:
G|----------------------------------------------------------|
D|-----000-222--------------------------000-222-------------|
A|-------------3(continually strum)-------------333-233-233-|
E|-333------------------------------333---------------------|

G|---------------------------------------------------------------|
D|-----000-222---------------------------000-222-----------------|
A|-------------3(continually strum)--------------3-3-3-3-3-3-3-3-|
E|-333-------------------------------333-------------------------|

Prechorus: (“The last time…”)
G|--------------------------------------------------------------------|
D|---------00000000-22222200------55---------00000000-22220000--------|
A|--------------------------333333----------------------------33333333|
E|-33333333--------------------------33333333-------------------------|

Chorus: (“He loves you…”)
G|-------------------------------|
D|-55-22-------------------------|
A|-------33333333-------33333333-|
E|----------------33-00----------|

Outro:
G|------------------------------------|
D|-999-999-777-777-5-4-2-0------------|
A|------------------------------------|
E|-------------------------3(Let ring)|

Order to play in:
Intro
Verse type 1 (4 x’s)
Verse type 2
Prechorus
Chorus (2 x’s)
Verse type 2
Prechorus
Chorus (2 x’s)
Prechorus (bass solo - continually strum all the way through and w/o 55 in the
 middle just rest instead)
Chorus (2x’s)
Outro
comments
We did not receive enough feedback on this tab! Please rate:
print report bad tab
1 2 3 4 5
2 comments total.
0 reply
basspunk282 wrote on December 20 2003, 12:00 am

this is an awesome tab dude
i love playin it cuz its sooo right

0 reply
basspunk282 wrote on December 20 2003, 12:00 am

in the intro tho he plays this at the end
g-----------------------
d---000-222--------5--5-
a-----------333--33-33--
e-33--------------------

I want to post or [tab]
guest
You may want to rate the tab now too:
select rating
Please do not post tabs as comments. Select "correction" instead!