Oops, an error
Loading. Please wait.

Decisions Decisions Bass Tab

version 2
version 2

Whole song

412 views 3 this week
no commentswrite comment
1 2 3 4 5
accurate
x 1
add to favorites
launch autoscroll
font size
0
reset
guitar tuner
Tab Pro tools
  • play this tab
  • loop segment
  • change instrument
  • show fretboard
  • metronome
Autoscroll
slow
fast
+/-
esc
set tempo
stop
Decisions, Decisions
The Starting Line
Say It Like You Mean It
Notes: 
^ = Double Didgets I.E 1010 = 10 - 10

Intro
G|-------------------------|
D|-----12~------------5~---|
A|-1010------555/77733-----| x2
E|-------------------------|
   ^^^^ 

G|------------------------------------------------------|
D|----------------------5~--------------------5~---5--5-|
A|-------------555/77733-------------555/77733---33-33--|
E|-10\33------------------10\33-----------------------|
   ^^                     ^^

G|------------------|
D|------------------|
A|-1010~--55-77-33~-| x4
E|------------------|
   ^^^^   

Verse
G|----------------------------------------|
D|----------------------------------------|
A|--------------55557777-33333333-3333333-|
E|-10\33333333---------------------------|
   ^^

G|------------------------------------|
D|------------------------------------|
A|----------55557777-33333333-223-223-|
E|-33333333---------------------------|

G|------------------------------------|
D|------------------------------------|
A|----------55557777-33333333-3333333-| x2
E|-33333333---------------------------|

Chorus
G|----------------------------------------------------------|
D|----------------------------------------------------------|
A|----------------------55555555-55555555-77777777-77775555-|
E|-12\33333333-3333333--------------------------------------|
   ^^

G|--------------------------------------------------------------|
D|--------------------------------------------------------------|
A|-33333333-33335/10\5/10\3-------------------55555555-55555555-|
E|--------------------------33333333-33333333-------------------|
                  ^^   ^^

G|-------------------------------------|
D|-------------------------------------|
A|-77777777-77775555-33-3-33-3-33------|
E|--------------------------------xxxx-|

Post-Chorus x4
G|------------------|
D|------------------|
A|---------33333333-|
E|-33--00-----------|

Verse
Chorus
Post-Chorus

Bridge
G|------------------------------------------------------------------5-|
D|------------------------------------------------------------------5-|
A|-------------------55555555-55555555-77777777-77775555-33333333-3-3-|
E|-33333333-33333333--------------------------------------------------|

G|---------------------------------------------------------------------|
D|---------------------------------------------------------------------|
A|-------------------55555555-55555555-77777777-55555555-33333333------|
E|-33333333-33333333----------------------------------------------xxxx-|

Post-Chorus

Outro
G|-----------------------------|
D|-----------------------------|
A|-77-777-755-555-5------------|
E|-----------------8-7-5\0-3~--|

Mental (Y) 
comments
We did not receive enough feedback on this tab! Please rate:
print report bad tab
1 2 3 4 5
I want to post or [tab]
guest
You may want to rate the tab now too:
select rating
Please do not post tabs as comments. Select "correction" instead!