Oops, an error
Loading. Please wait.

Drama Summer Tab

version 5
version 5

Interactive

641 views 1 this week
1 commentread comment
1 2 3 4 5
not so good
x 3
add to favorites
launch autoscroll
font size
0
reset
how to read this tab
guitar tuner
Tab Pro tools
  • play this tab
  • loop segment
  • change instrument
  • show fretboard
  • metronome
Autoscroll
slow
fast
+/-
esc
set tempo
stop
Contributor
Strumming throughout the song is up to you,
but I think you can handle it.

Intro:

1st Guitar
e--------------------------------------------------------|
B----------------------------------------------7-----7---|
G---------------------------------------------7-7---7-7--|
D-------------------------7--5--4--5--5--5---5-----5-----|
A-----2--2-----2-------5---------------------------------|
E--3--------3-----3/5------------------------------------|

e---------------------------------|
B---7-7h8p7-7--7--7-7h8p7-7--7----|
G--7----------7--7----------7-7~~-|
D---------------------------------|
A---------------------------------|
E---------------------------------|

2nd Guitar-strumming
e--x----------x----------x----------x-----x-xx---|
B--x----------x----------x----------x-----x-xx---|
G--x----------x----------x----------x-----x-xx---| 2nd guitar
D--x----------x----------x----------x-----x-xx---| plays chords
A--5----------5----------5----------5-----5-55---|
E--0----------5----------3----------0-----3-33---|


Verse 1: We can wait for...

e---------------------------------------|
B---------------------------------------|
G---7-------4---2-----------------------|
D---7---5---4---2-----------------------|
A---5---5---2---0-----------------------|
E-------3-------------------------------|

Verse 2: My eyes roll...      Dizzy with sun stroke...

e--------------------------|----------------------------|
B--------------------------|----------------------------|
G---7-------4--------------|---7------------------------|
D---7---5---4--------------|---7---7---5----------------|
A---5---5---2--------------|---5---7---5----------------|
E-------3------------------|-------5---3----------------|

Chorus: I'll be there...      I'll pick up everything...

e--------------------------|----------------------------|
B--------------------------|----------------------------|
G---9---7---4---2----------|---7---4--------------------|
D---9---7---4---2---5------|---7---4---7---5------------|
A---7---5---2---0---5------|---5---2---7---5------------|
E-------------------3------|-----------5---3------------|

Verse3: Cross your fingers...    Painting the town...

e------------------------|------------------------------|
B------------------------|------------------------------|
G---7-------4------------|---7-------------7------------|
D---7---5---4------------|---7---7---5-----7------------|
A---5---5---2------------|---5---7---5-----5------------|
E-------3----------------|-------5---3------------------|

Solo:

e--------------------------------|
B-------7-----7-----7---7--7-----|
G------7-7---7-7---7-7---7-------|
D-----7---7-7---7-7---7---7------|
A----5-----5-----5---------------|
E--------------------------------|

Ending: Guess I'll call or see you around...
e---------------------------------------|
B---------------------------------------|
G---7---9---4---------------------------|
D---7---9---4---5-----------------------|  X2
A---5---7---2---5-----------------------|
E---------------3-----------------------|

e---------------------------------------|
B---------------------------------------|
G---9/11----11/12----12/11---9---7------|
D---x/x-----x/x------x/x-----x---x------|  X2
A---7/9-----9/10-----10/9----7---5------|
E---------------------------------------|

e------------------------------------------- |
B------------------------------------------- | <
G---9/11-----9---7---4-----7------------- -- |
D---x/x------x---x---x-----x------------- -- |
A---7/9------7---5---2-----5------------- -- |
E---------------------------------------- -- |
                       v(only 2nd time)v   | All X2
e--------------------|------------------- -- |
B--------------------|------------------- -- |
G---7---6---7---9----|------7------------ -- |
D---x---x---x---x----|------x------------ -- |
A---5---4---5---7----|------5--------------- | <
E--------------------|---------------------- |

Um not completely, but really close.
Mess around with it a little. Let me
know how you like the tabs?¿?..
ENJOY.
comments
We did not receive enough feedback on this tab! Please rate:
print report bad tab
1 2 3 4 5
1 comment total.
0 reply
Imnotrichey wrote on February 21 2006, 11:25 pm

there are no power chords in this song except for the D...everything else constantly works off that chord..usually just changing the bass note

I want to post or [tab]
guest
You may want to rate the tab now too:
select rating
Please do not post tabs as comments. Select "correction" instead!