Oops, an error
Loading. Please wait.

Hold On Tab

version 1
version 1

Whole song

Interactive

1,674 views 6 this week
no commentswrite comment
1 2 3 4 5
excellent!
x 3
add to favorites
launch autoscroll
font size
0
reset
how to read this tab
guitar tuner
Tab Pro tools
  • play this tab
  • loop segment
  • change instrument
  • show fretboard
  • metronome
Autoscroll
slow
fast
+/-
esc
set tempo
stop
Contributor
Song: Hold On (The Piano Song)
Artist: The Starting Line
Tabbed by: John Lee

h=hammer
p=pull off
/=slide
u=strum up
d=strum down

 (0:25)|(1:03)                                                       (1:40)
e|--3--|---------------------------------------------------------3---|--3--|
B|--3--|--8h10-8-10h12-12-12-10-8-8-8p7--------------------------3---|--3--|
G|--0--|--------------------------------7/9-7-5-4h5-4-00---------0---|--0--|
A|--0--|-------------------------------------------------0h2-5---0---|--0--|
D|--2--|---------------------------------------------------------2---|--2--|
E|--3--|---------------------------------------------------------3---|--3--|
    u  								 u      u 

(2:18)
e|8p7-----7h8-7-----------------------------------------------------------| 
B|---8h10-------8---------------------------------------------------------| 
G|----------------7-4-4-4h5-4-0-0h2-2h4-4-5-5h7-4h5p4-------4-7-5---5-5---| 
D|-----------------------------------------------------55-5-------5-------| 
A|------------------------------------------------------------------------| 
E|------------------------------------------------------------------------| 


e|---------------------------6p5-------------------------------------------|
B|-------------------------------8p5-8/10--10/12--12-13-13h15-12-13-12-13--|
G|--4-7-5-4-4-4-5-4-4------------------------------------------------------|
D|5--------------------2/5-5-----------------------------------------------|
A|-------------------------------------------------------------------------|
E|-------------------------------------------------------------------------|

	                                                             (3:11)
e|--------------------3----------------------------------------------|--3--|
B|12-13-12------------3----------------------------------------------|--3--|
G|---------12-12-12---0----------------------------------------------|--0--|
D|--------------------0----------------------------------------------|--0--|
A|--------------------2----------------------------------------------|--2--|
E|--------------------3----------------------------------------------|--3--|
		      u							u

(3:36)
e|3-----3-----3-----3-----2---2-------|-3-----3-----3---2-----2-----2-----| 
B|--3-3---3-3---3-3---3-3---3---3-----|---3-3---3-3---3---3-3---3-3---3---| 
G|------------------------------------|-----------------------------------| 
D|------------------------------------|-----------------------------------| 
A|------------------------------------|-----------------------------------| 
E|--------------------------------(x3)|-----------------------------------| 


e|3-----3-----3-----3-----2---2-------|3-----3-----3---2-----2-----2-----3-|
B|--3-3---3-3---3-3---3-3---3---3-----|--3-3---3-3---3---3-3---3-3---3---3-|
G|------------------------------------|----------------------------------0-|
D|------------------------------------|----------------------------------0-|
A|------------------------------------|----------------------------------2-|
E|--------------------------------(x3)|----------------------------------3-|
								         d
comments
We did not receive enough feedback on this tab! Please rate:
print report bad tab
1 2 3 4 5
I want to post or [tab]
guest
You may want to rate the tab now too:
select rating
Please do not post tabs as comments. Select "correction" instead!