Oops, an error
Loading. Please wait.

Inspired By The Bass Tab

684 views 1 this week
1 commentread comment
1 2 3 4 5
please rate
add to favorites
launch autoscroll
font size
0
reset
guitar tuner
Tab Pro tools
  • play this tab
  • loop segment
  • change instrument
  • show fretboard
  • metronome
×
Best way to learn
"Inspired By The"
Autoscroll
slow
fast
+/-
esc
set tempo
stop
Contributor
The Starting Line
Inspired by the $
Based On A True Story
Tabbed by: paramore_fans@yahoo.com
Kenny Vasoli is one of the most skilled bassist/vocalist. Imagine that it's hard to sing 
playing bass with scales he does. I don't get why noone tab this song in bass. This is 
reason I tab this one.

Bass tab:


Tuning: Standard EADG


Intro: 3/4 beat until chorus
G|--------|---------|
D|--------|---------|
A|--------|----2--3-|
E|---2--2-|---------|
     x2
G|-----------------|-----------------|-----------------|
D|---------2-------|------------2----|---------4-------|
A|-4--2-4----------|-0----0--0-----0-|-2--2-2-----3--3-|
E|------------2--2-|----0------------|-----------------|
     x2
G|------------6-|-----------------|-----------------|
D|----2--4--6---|------------2----|---------4-------|
A|-4------------|-0----0--0-----0-|-2--2-2-----3--3-|
E|--------------|----0------------|-----------------|
     x2

Verses:
close window/this is the...
G|---------|
D|---------|
A|-4(hold)-
E|---------

G|------------------|------------------|------------------|
D|------------------|-------------4--2-|----------4-------|
A|-4--4--4--4-------|-0--0--0----------|-2--2--2-----3--3-| (x3)
E|-------------2--2-|----------0-------|------------------|


Chorus: Get to the point
G|-----------------|-----------------|-----------------|
D|---------2-------|------------2----|---------4-------|
A|-4--2-4----------|-0----0--0-----0-|-2--2-2-----3--3-|
E|------------2--2-|----0------------|-----------------|
        x2
then
G|------------6-|-----------------|-----------------|
D|----2--4--6---|------------2----|---------4-------|
A|-4------------|-0----0--0-----0-|-2--2-2-----3--3-|
E|--------------|----0------------|-----------------|
        x2


Bridge: Beat switch from 3/4 to standard 4/4

You know you get it right...
G|----------|------------------------------------------------|
D|----------|-------------------2--------2--------2--------2-|
A|------4-4-|-----------------4----4p2h4----4p2h4----4p2h4---|
E|----------|-2-2-2-2-2-2-2-2--------------------------------|
                                  x2

If I did it again...
G|------------------------------|
D|------------------------------|
A|-----------------0-0-0-0-3--3-|
E|-2-2-2-2-4-4-4-4--------------|

(Repeat Chorus twice)
comments
We did not receive enough feedback on this tab! Please rate:
print report bad tab
1 2 3 4 5
1 comment total.
0 reply
jiggy182 wrote on November 7 2008, 12:52 pm

I filled it out a bit more with some standard impro, but very impressed and gave me a decent reference :)
cheers x

I want to post or [tab]
guest
You may want to rate the tab now too:
select rating
Please do not post tabs as comments. Select "correction" instead!