Oops, an error
Loading. Please wait.

Ready intro tab

version 1
version 1

Intro

Whole song

Interactive

1,868 views 1 this week
3 commentsread comments
1 2 3 4 5
x 4
add to favorites
×
Save as Personal and add changes to this tab that will be seen only by you. Learn more ›
×
You can save this tab as Personal to edit and correct it or add notes. All changes will be seen only by you. Learn more »
launch autoscroll
font size
0
reset
how to read this tab
guitar tuner
edit
Autoscroll
slow
fast
+/-
esc
set tempo
stop
starting line-ready
there is no tabs for this song anywhere but can only figure out the intro sorry
tab by dennis
if questions email me at downnotunder27@hotmail.com


correct way
e-0-h2--0-h2---------------|
B-----3-----3-3-2----2--2--|
G------------2-------------|
D-0-0-0-0-0-0-0--0----0--0-|
A------------------0---0---|
E--------------------------|

or can be played like this
easy way
e------------------|
B--7---7-----------|
G-9-7-9-7-7-6--6-6-|
D--------7---0--0-0|
A-------------0--0-|
E------------------|
Suggest correction
Creating personal tab
Creating personal tab
You can edit any tab online and save it as your Personal.

You can edit, replace or remove any tab part or add personal notes – all changes will be seen only by you.

Personal tabs can be accessed anytime from any device, even offline.
Learn more »
comments
print report bad tab
3 comments total.
0 reply
harm0n20 226 Jul 26, 2005 08:00 PM

this sounds great! be nice if you could get the entire song though.

0 reply
MKBLINK182 31 May 08, 2006 03:32 AM

The songs played in drop d, and your intro sounds wrong....i dont see how this got 3 five star ratings:

E-----------------------------------|
B-5-7---5-7-------------------------|
G-----7-----7---7--6-----6----6h7---| x4
D-------------7-----0-----0---------|
A---------------------0-----0-------|
D-5-5-5-5-5-5-5-5-7-7-7-7-7-7-7-----|

0 reply
MKBLINK182 31 May 08, 2006 03:33 AM

short tab/non accurate

guest
Wanna post a correction for this tab? Suggest correction