Oops, an error
Loading. Please wait.

Something Left To Give intro tab

version 1
version 1

Intro

Whole song

4,176 views 1 this week
3 commentsread comments
1 2 3 4 5
1 last vote to show rating
add to favorites
×
Save as Personal and add changes to this tab that will be seen only by you. Learn more ›
×
You can save this tab as Personal to edit and correct it or add notes. All changes will be seen only by you. Learn more »
launch autoscroll
font size
0
reset
how to read this tab
guitar tuner
edit
Autoscroll
slow
fast
+/-
esc
set tempo
stop
Author
INTRO:
e|-------------------------------------------------------------------------------|
B|---4------1-------------------4-----1------------------------------------------|
G|------3------1-------------------3-----1---------------------------------------|
D|----------------1-------------------------1------------------------------------|
A|-------------------------------------------------------------------------------|
E|-------------------------------------------------------------------------------|
Suggest correction
Creating personal tab
Creating personal tab
You can edit any tab online and save it as your Personal.

You can edit, replace or remove any tab part or add personal notes – all changes will be seen only by you.

Personal tabs can be accessed anytime from any device, even offline.
Learn more »
Give kudos to tab author, rate the tab!
1 2 3 4 5
comments
print report bad tab
3 comments total.
0 reply
mattwilham 241 Aug 28, 2007 05:58 PM

...are you slightly retarded?

0 reply
adventcloud 10 Sep 28, 2007 11:39 AM

4 stars for the wrong tuning. the tuning of the song is 1/2 step down though x)

0 reply
adventcloud 10 Sep 28, 2007 11:44 AM

Ohhh and I almost forgot. When the tuning its 1/2 step down, then the notes on B and G could be played with open strings. So it should easily be done like this:

eb---0---------------0--------------|
Bb------0---------------0-----------|
Gb---------6---------------6--------|
Db------------7---------------7-----|
Ab--------------0--0-------------0--|
Eb-0--------------------------------|

(Ripped it off from smash453's tab, thanks alot!)

guest
You may want to rate the tab now too:
select rating
Wanna post a correction for this tab? Suggest correction