Oops, an error
Loading. Please wait.

The Best Of Me Acoustic tab

version 7
version 7

Interactive

54,251 views 33 this week
12 commentsread comments
1 2 3 4 5
x 38
add to favorites
×
Save as Personal and add changes to this tab that will be seen only by you. Learn more ›
×
You can save this tab as Personal to edit and correct it or add notes. All changes will be seen only by you. Learn more »
launch autoscroll
font size
0
reset
how to read this tab
guitar tuner
edit
Autoscroll
slow
fast
+/-
esc
set tempo
stop
Author
Artist:         The Starting Line 
Song:           The Best Of Me [acoustic]
Album:          Make Yourself At Home EP
Tabbed by:      Per Karlsson [peer83@hotmail.com]
Updated:        2009/03/12 - Hope this version is easier to play/read.
                I've corrected some errors as well (as best as i can).

Tuning:         Standard

Note:           I've merely written out the chords, you have to
                listen to the song for strumming patterns.


---------------------------------- GUITAR 1 ---------------------------------
-----------------------------------------------------------------------------

[Intro]
    0:05
e|--0--0----0--0----0-------0--0----0--0----0--0----0-------0--0----0~---0~--|
B|--0--0----0--0----0-------0--0----0--0----0--0----0-------0--0----0~---0~--|
G|--1--2----4--4----2-------4--4----1--2----4--4----2-------4--4----2~---2~--|
D|--2--2----4--2----2-------2--4----2--2----4--2----2-------2--4----2~---2~--|
A|--2--0----2--4----0-------4--2----2--0----2--4----0-------4--2----0~---0~--|
E|--0-------------------------------0----------------------------------------|

Fill before the first Verse
    0:52
e|------0--0------0--0-------------------------------------------------------|
B|----0----------------------------------------------------------------------|
G|--9-----9-9----9-99-9------------------------------------------------------|
D|---------------------------------------------------------------------------|
A|---------------------------------------------------------------------------|
E|---------------------------------------------------------------------------|

[Verse]
    0:55
e|------0-----0---------0-----0---------0-----0---------0-----0--------------|
B|----0-----0---------0-----0---------0-----0---------0-----0----------------|
G|--9-----9-----9\8-8-----8-----8\6-6-----6-----6\4-4-----4-----4/9----------|
D|---------------------------------------------------------------------------|
A|---------------------------------------------------------------------------|
E|---------------------------------------------------------------------------|
    1:09
e|--0------------------------------------------------------------------------|
B|--0------------------------------------------------------------------------|
G|--2------------------------------------------------------------------------|
D|--2------------------------------------------------------------------------|
A|--0------------------------------------------------------------------------|
E|---------------------------------------------------------------------------|
    1:14
e|------0-----0---------0-----0---------0-----0---------0-----0--------------|
B|----0-----0---------0-----0---------0-----0---------0-----0----------------|
G|--9-----9-----9\8-8-----8-----8\6-6-----6-----6\4-4-----4-----4/9----------|
D|---------------------------------------------------------------------------|
A|---------------------------------------------------------------------------|
E|---------------------------------------------------------------------------|
    1:28
e|--0------------------------------------------------------------------------|
B|--0------------------------------------------------------------------------|
G|--2------------------------------------------------------------------------|
D|--2------------------------------------------------------------------------|
A|--0------------------------------------------------------------------------|
E|---------------------------------------------------------------------------|
    1:33
e|------0-----0---------0-----0---------0-----0---------0-----0--------------|
B|----0-----0---------0-----0---------0-----0---------0-----0----------------|
G|--9-----9-----9\8-8-----8-----8\6-6-----6-----6\4-4-----4-----4/9----------|
D|---------------------------------------------------------------------------|
A|---------------------------------------------------------------------------|
E|---------------------------------------------------------------------------|

[Pre-Chorus]
    1:38           1:41           1:43           1:45
e|--0--------------0--------------0--------------0---------------------------|
B|--0--------------0--------------0--------------0---------------------------|
G|--2--------------2--------------2--------------2---------------------------|
D|--4--------------2--------------4--------------2---------------------------|
A|--4--------------0--------------4--------------0---------------------------|
E|---------------------------------------------------------------------------|

[Chorus]
    1:48
e|--0--0----0--0----0-------0--0----0--0----0--0----0-------0--0----0--------|
B|--0--0----0--0----0-------0--0----0--0----0--0----0-------0--0----0--------|
G|--1--2----4--4----2-------4--4----1--2----4--4----2-------4--4----2--------|
D|--2--2----4--2----2-------2--4----2--2----4--2----2-------2--4----2--------|
A|--2--0----2--4----0-------4--2----2--0----2--4----0-------4--2----0--------|
E|--0-------------------------------0----------------------------------------|

[Verse]
[Pre-Chorus]
[Chorus]
[Intro]

[Bridge]
    3:33
e|--0~-----------------------------------------------------------------------|
B|--0~-----------------------------------------------------------------------|
G|--4~-----------------------------------------------------------------------|
D|--2~-----------------------------------------------------------------------|
A|--4~-----------------------------------------------------------------------|
E|---------------------------------------------------------------------------|
    3:43
e|----0-----------------------0-----0-----0-----0----------------------------|
B|------4-----------------------4-----4-----------4--------------------------|
G|--6-----6~----------------4-----4-----4-----6-----6~-----------------------|
D|---------------------------------------------------------------------------|
A|---------------------------------------------------------------------------|
E|---------------------------------------------------------------------------|
    3:50
e|----0-----0-----0---0-----0-----0---0-----0-----0--0~----------------------|
B|------4-----4---------4-----4---------4-----4------4~----------------------|
G|--4-----4-----4---4-----4-----4---4-----4-----4----4~----------------------|
D|---------------------------------------------------------------------------|
A|---------------------------------------------------------------------------|
E|---------------------------------------------------------------------------|

Last Chorus
    4:00
e|--0--0----0--0----0-------0--0----0--0----0--0----0-------0--0----0--0-----|
B|--0--0----0--0----0-------0--0----0--0----0--0----0-------0--0----0--0-----|
G|--1--2----4--4----2-------4--4----1--2----4--4----2-------4--4----4--4-----|
D|--2--2----4--2----2-------2--4----2--2----4--2----2-------2--4----2--4-----|
A|--2--0----2--4----0-------4--2----2--0----2--4----0-------4--2----4--2-----|
E|--0-------------------------------0----------------------------------------|

e|--0--0----0----------------------------------------------------------------|
B|--0--0----0----------------------------------------------------------------|
G|--4--4----2----------------------------------------------------------------|
D|--2--4----2----------------------------------------------------------------|
A|--4--2----0----------------------------------------------------------------|
E|---------------------------------------------------------------------------|


End with the Intro



---------------------------------- GUITAR 2 ---------------------------------
-----------------------------------------------------------------------------

[Intro]
    0:28
e|--0--0----0--0----0--0----0--0----0--0----0--0----0--0----0--0----0~---0~--|
B|--0--0----0--0----0--0----0--0----0--0----0--0----0--0----0--0----0~---0~--|
G|--9--9----8--6----13-9----9--8----9--9----8--6----13-9----9--8----6~---6~--|
D|--9--7----9--7----14-7----9--9----9--7----9--7----14-7----9--9----7~---7~--|
A|--7--7----9--7----12-7----7--9----7--7----9--7----12-7----7--9----7~---7~--|
E|---------------------------------------------------------------------------|
    0:52
e|--0~-----------------------------------------------------------------------|
B|--0~-----------------------------------------------------------------------|
G|--1~-----------------------------------------------------------------------|
D|--2~-----------------------------------------------------------------------|
A|--2~-----------------------------------------------------------------------|
E|---------------------------------------------------------------------------|

[Verse]
    0:57
e|-------0----------------0----------------0-----------------0---------------|
B|-----9------9---------9------9---------9------9----------9------9----------|
G|--11-----11---11---11-----11---11---11-----11---11----11-----11---11-------|
D|---------------------------------------------------------------------------|
A|---------------------------------------------------------------------------|
E|---------------------------------------------------------------------------|
    1:09                          1:14
e|--0-----------------------------0~-----------------------------------------|
B|--0-----------------------------0~-----------------------------------------|
G|--2-----------------------------1~-----------------------------------------|
D|--2-----------------------------2~-----------------------------------------|
A|--0-----------------------------2~-----------------------------------------|
E|---------------------------------------------------------------------------|
    1:19
e|-------0----------------0----------------0-----------------0---------------|
B|-----9------9---------9------9---------9------9----------9------9----------|
G|--11-----11---11---11-----11---11---11-----11---11----11-----11---11-------|
D|---------------------------------------------------------------------------|
A|---------------------------------------------------------------------------|
E|---------------------------------------------------------------------------|
    1:28                          1:33
e|--0-----------------------------0------------------------------------------|
B|--0-----------------------------0------------------------------------------|
G|--2-----------------------------1------------------------------------------|
D|--2-----------------------------2------------------------------------------|
A|--0-----------------------------2------------------------------------------|
E|---------------------------------------------------------------------------|

[Pre-Chorus]
    1:38           1:41           1:43           1:45
e|--0--------------0--------------0--------------0---------------------------|
B|--0--------------0--------------0--------------0---------------------------|
G|--2--------------2--------------2--------------2---------------------------|
D|--4--------------2--------------4--------------2---------------------------|
A|--4--------------0--------------4--------------0---------------------------|
E|---------------------------------------------------------------------------|

[Chorus]
    1:48
e|--0--0----0--0----0-------0--0----0--0----0--0----0-------0--0----0--------|
B|--0--0----0--0----0-------0--0----0--0----0--0----0-------0--0----0--------|
G|--1--2----4--4----2-------4--4----1--2----4--4----2-------4--4----2--------|
D|--2--2----4--2----2-------2--4----2--2----4--2----2-------2--4----2--------|
A|--2--0----2--4----0-------4--2----2--0----2--4----0-------4--2----0--------|
E|--0-------------------------------0----------------------------------------|

[Verse]
[Pre-Chorus]
[Chorus]
[Intro]

[Bridge]
    3:33
e|---------------------------------------------------------------------------|
B|------0--------------0--------------0--------------0-----------------------|
G|------4--------------4--------------4--------------4-----------------------|
D|----2--------------2--------------2--------------2-------------------------|
A|--4--------------0--------------4--------------0---------------------------|
E|---------------------------------------------------------------------------|
    3:43
e|---------------------------------------------------------------------------|
B|---------------------------------------------------------------------------|
G|------4---4-------------4---4-------------4---4----------------------------|
D|----2---------2-------2---------2-------2---------2------------------------|
A|--4-----4---4---4---0-----0---0---0---4-----4---4---4----------------------|
E|---------------------------------------------------------------------------|
    3:50
e|--------------------------------------------------------0~-----------------|
B|--------------------------------------------------------0~-----------------|
G|------4-------4---------4-------4---------4-------4-----4~-----------------|
D|----2-------2---2-----2-------2---2-----2-------2---2---2~-----------------|
A|--0-----0-2---------0-----0-2---------0-----0-2---------0~-----------------|
E|---------------------------------------------------------------------------|

Last Chorus - Guitar 2 ends with this
    4:00
e|--0--0----0--0----0-------0--0----0--0----0--0----0-------0--0----0--0-----|
B|--0--0----0--0----0-------0--0----0--0----0--0----0-------0--0----0--0-----|
G|--1--2----4--4----2-------4--4----1--2----4--4----2-------4--4----4--4-----|
D|--2--2----4--2----2-------2--4----2--2----4--2----2-------2--4----2--4-----|
A|--2--0----2--4----0-------4--2----2--0----2--4----0-------4--2----4--2-----|
E|--0-------------------------------0----------------------------------------|

e|--0--0----0----------------------------------------------------------------|
B|--0--0----0----------------------------------------------------------------|
G|--4--4----2----------------------------------------------------------------|
D|--2--4----2----------------------------------------------------------------|
A|--4--2----0----------------------------------------------------------------|
E|---------------------------------------------------------------------------|



************************************

~ = let ring
h = hammer on
/ = slide up
\ = slide down

************************************

            
            
Suggest correction
Creating personal tab
Creating personal tab
You can edit any tab online and save it as your Personal.

You can edit, replace or remove any tab part or add personal notes – all changes will be seen only by you.

Personal tabs can be accessed anytime from any device, even offline.
Learn more »
comments
print report bad tab
12 comments total. Showing first comments.
0 reply
punk rock!22 41 Dec 02, 2004 07:00 PM

good job with the 2nd guitar

0 reply
EdMcMan 41 Feb 14, 2005 07:00 PM

Is the verse picked? Yipes, that is fast..

0 reply
sunburn 111 Feb 19, 2005 07:00 PM

hehe.. yeah, that's picked ;)

guest
You may want to rate the tab now too:
select rating
Wanna post a correction for this tab? Suggest correction