Oops, an error
Loading. Please wait.

Threes A Charm Bass Tab

10 views 1 this week
no commentswrite comment
1 2 3 4 5
3 more votes to show rating
add to favorites
launch autoscroll
font size
0
reset
guitar tuner
Autoscroll
slow
fast
+/-
esc
set tempo
stop
Help us to improve Ultimate-Guitar.com Take our survey!
×
Author
Difficulty
Tuning
intermediate
D A D G B E
About this tab version
My version is in Drop D, and features all of the fills that I could hear in this song. Was this info helpful? Yes No
The Starting Line - Three's a Charm

Tabbed by: Ash (XxThreeCheersxX)
email: burdickash@gmail.com

It's hard to hear some of the bass fills, so listen carefully.

Intro (come in at 0:07)
G|---------------------------------------------2~----------------------------|
D|-----0~-----------------------------4--2-4-2-0~----------------------------|
A|---0-----------------------------5---------------------5-------------------|
D|-0----------------------------------------------------------7----0~--------|

G|-------------------------------------------------------------------------------------------------|
D|-------------------------------------------------------------------------------------------------|
A|-5-5-5-5-5-5-5-5-5-5-5-5-5-5-5-------------------------------------------------------------------|
D|-------------------------------7--7-7-7-7-7-7-7-7-7-7-7-7-7-7-7-5--5-5-5-5-5-5-5-5-5-5-5-5-5-5-5-|

G|-------------------------------------|
D|-------------------------------------|
A|-----------------------------5-4-5-7-|
D|-2-2----4-4----5-5----7-7------------|

G|-----------------------------------------------------------------------------------------------------|
D|-----------------------------------------------------------------------------------------------------|
A|-5-5-5-5-5-5-5-5-5-5-5-5/10-10-10-10-----------------------------------------------------------------|
D|-------------------------------------7-7-7-7-7-7-7-7-7-7-7-7/9-9-9-9-5-5-5-5-5-5-5-5-5-5-5-5-5-5-5-5-|

G|-------------------------------------|
D|-------------------------------------|
A|-----------------------------5-4-5-7-|
D|-2-2----4-4----5-5----7-7------------|


Verse I x 2
G|-----------------------------------------------------------------|
D|-----------------------------------------------------------------|
A|-----------------5-5-5-5-5-5-5-5-----------------5-5-5-5-5-5-5-5-|
D|-5-5-5-5-5-5-5-5-----------------5-5-5-5-5-5-5-5-----------------|

G|-----------------------------------------------------------------|
D|-----------------------------------------------------------------|
A|-----------------5-5-5-5-5-5-5-5---------------------------------|
D|-5-5-5-5-5-5-5-5-----------------5-5-5-5-5-5-5-5-0~--------------|

Chorus x 2
G|-------------------------------------------------------------------------------------------------|
D|-------------------------------------------------------------------------------------------------|
A|-5-5-5-5-5-5-5-5-5-5-5-5-5-5-5-------------------------------------------------------------------|
D|-------------------------------7--7-7-7-7-7-7-7-7-7-7-7-7-7-7-7-5--5-5-5-5-5-5-5-5-5-5-5-5-5-5-5-|

G|-------------------------------------|
D|-------------------------------------|
A|-----------------------------5-4-5-7-|
D|-2-2----4-4----5-5----7-7------------|

Interlude
G|---------------------------------------------------------------|
D|----------------------------4----------------------------------|
A|-2-2-2-2-2-2-2-5--5-5-5-5-7---7-2-2-2-2-2-2-0------------------|
D|----------------------------------------------5--5-5-5-5-5-5-5-|

G|---------------------------------------------------------------|
D|---------------------------------------------------------------|
A|-2-2-2-2-2-2-2-5--5-5-5-5-5-14\--------------------------------|
D|---------------------------------9-9-9-9-7-7-7-5~--------------|

Verse x 2

Chorus x 2

Bridge
G|---------------------------------------|
D|---------------------------------------|
A|-5~--------7~--------5~----------------|
D|---------------------------------------|

G|-------------------------------------------------------------------|
D|-------------------------------------------------------------------|
A|-5-5-5-5-5-5-5-5-5-5-5-5-5-5-5-5-5---------------------------------| x 3
D|-----------------------------------5-5-5-5-5-5-5-5-5-5-5-5-4-4-4-4-|

G|-------------------------------------------------------------------|
D|-------------------------------------------------------------------|
A|-5-5-5-5-5-5-5-5-5-5-5-5-5/12-12-12-12-----------------------------| 
D|---------------------------------------5-5-5-5-5-5-5-5-5-----------|

Chorus x 2

Outro Chorus x 2
G|-------------------------------------------------------------------------------------------------|
D|-------------------------------------------------------------------------------------------------|
A|-5-5-5-5-5-5-5-5-9-9-9-9-7-7-7-7-----------------------------------------------------------------|
D|---------------------------------7-7-7-7-7-7-7-7-7-7-7-7-9-9-9-9-5-5-5-5-5-5-5-5-5-5-5-5-5-5-5-5-|

G|-------------------------------------|
D|-------------------------------------|
A|-----------------------------5-4-5-7-|
D|-2-2----4-4----5-5----7-7------------|

Outro
G|-----------------------------7-6-7-9--------|
D|-2-2----4-4----5-5----7-7-------------------|
A|--------------------------------------5x----|
D|--------------------------------------------|

Happy playing!

************************************

| x   Dead note
| g   Grace note
| (n) Ghost note
| h   Hammer-on
| p   Pull-off
| r   Release
| >   Accented note
| t   Tapping
| b   Bend
| br  Bend release
| pb  Pre-bend
| pbr Pre-bend release
| /   Slide up
| \   Slide down
| ~   Vibrato
| s   Slap
| P   Pop
| PM  Palm mute
| TR  Trill
| N   Tremolo

************************************
Suggest correction
Give kudos to tab author, rate the tab!
1 2 3 4 5
comments
print report bad tab
guest
You may want to rate the tab now too:
select rating
Wanna post a correction for this tab? Suggest correction