Oops, an error
Loading. Please wait.

Up And Go tab

version 1
version 1

Whole song

Interactive

5,238 views 3 this week
1 commentread comment
1 2 3 4 5
x 3
add to favorites
×
Save as Personal and add changes to this tab that will be seen only by you. Learn more ›
×
You can save this tab as Personal to edit and correct it or add notes. All changes will be seen only by you. Learn more »
launch autoscroll
font size
0
reset
how to read this tab
guitar tuner
edit
Autoscroll
slow
fast
+/-
esc
set tempo
stop
Author
Difficulty
Up & Go   
The Starting Line                                   
Gtr. I



     E  E  E  E  E  E  E  E     E  E  E  E  E  E  E  E   
E||--------0-----------0-----|--------0-----------0-----|
B||-----0-----0-----0-----0--|-----0-----0-----0-----0--|
G||--------------------------|--------------------------|
D||--------------9-----------|--7-----------6-----------|
A||--7-----------------------|--------------------------|
E||--------------------------|--------------------------|


  E  E  E  E  E  E  E  E     E  E  E  E  E  E  E  E   
--------0-----------0-----|--------0-----------0-----|
-----0-----0-----0-----0--|-----0-----0-----0-----0--|
--------------------------|--------------------------|
--7-----------9-----------|--7-----------6-----------|
--------------------------|--------------------------|
--------------------------|--------------------------|


  E  E  E  E  E  E  E  E     E  E  E  E  E  E  E  E   
--------0-----------0-----|--------0-----------0-----|
-----0-----0-----0-----0--|-----0-----0-----0-----0--|
--------------------------|--------------------------|
--------------9-----------|--7-----------6-----------|
--7-----------------------|--------------------------|
--------------------------|--------------------------|


  E  E  E  E  E  E  E  E     E  E  E  E  E  E  E  E   
--------0-----------0-----|--------0-----------0-----|
-----0-----0-----0-----0--|-----0-----0-----0-----0--|
--------------------------|--------------------------|
--7-----------6-----------|--7-----------6-----------|
--------------------------|--------------------------|
--------------------------|--------------------------|


  E  E  E  E  E  E  E  E     E  E  E  E  E  E  E  E   
--------0-----------0-----|--------0-----------0-----|
-----0-----0-----0-----0--|-----0-----0-----0-----0--|
--------------------------|--------------------------|
--------------9-----------|--7-----------6-----------|
--7-----------------------|--------------------------|
--------------------------|--------------------------|


  E  E  E  E  E  E  E  E     E  E  E  E  E  E  E  E   
--------0-----------0-----|--------0-----------0-----|
-----0-----0-----0-----0--|-----0-----0-----0-----0--|
--------------------------|--------------------------|
--7-----------6-----------|--7-----------6-----------|
--------------------------|--------------------------|
--------------------------|--------------------------|


  E  E  E  E  E  E  E  E     E  E  E  E  E  E  E  E   
--------0-----------0-----|--------0-----------0-----|
-----0-----0-----0-----0--|-----0-----0-----0-----0--|
--------------------------|--------------------------|
--------------9-----------|--7-----------6-----------|
--7-----------------------|--------------------------|
--------------------------|--------------------------|


  E  E  E  E  E  E  E  E     E  E  E  E  E  E  E  E       W                 
--------0-----------0-----|--------0-----------0-----||--------------------|
-----0-----0-----0-----0--|-----0-----0-----0-----0--||--------------------|
--------------------------|--------------------------||*-------------------|
--7-----------6-----------|--7-----------6-----------||*-------------------|
--------------------------|--------------------------||--------------------|
--------------------------|--------------------------||--------------------|


  W                   W                   W                   
-------------------|-------------------|--------------------||
-------------------|-------------------|--------------------||
-------------------|-------------------|-------------------*||
-------------------|-------------------|-------------------*||
-------------------|-------------------|--------------------||
-------------------|-------------------|--------------------||


  W                     W                   W                 
-------------------||--------------------|-------------------|
-------------------||--------------------|-------------------|
-------------------||*-------------------|-------------------|
-------------------||*-------------------|-------------------|
-------------------||--------------------|-------------------|
-------------------||--------------------|-------------------|


  W                   W                     W                 
-------------------|--------------------||-------------------|
-------------------|--------------------||-------------------|
-------------------|-------------------*||-------------------|
-------------------|-------------------*||-------------------|
-------------------|--------------------||-------------------|
-------------------|--------------------||-------------------|


  W                   W                   W                   W                 
-------------------|-------------------|-------------------|-------------------|
-------------------|-------------------|-------------------|-------------------|
-------------------|-------------------|-------------------|-------------------|
-------------------|-------------------|-------------------|-------------------|
-------------------|-------------------|-------------------|-------------------|
-------------------|-------------------|-------------------|-------------------|


  W                   W                   W                 
-------------------|-------------------|-------------------|
-------------------|-------------------|-------------------|
-------------------|-------------------|-------------------|
-------------------|-------------------|-------------------|
-------------------|-------------------|-------------------|
-------------------|-------------------|-------------------|


    W                   W                   W                 
|--------------------|-------------------|-------------------|
|--------------------|-------------------|-------------------|
|*-------------------|-------------------|-------------------|
|*-------------------|-------------------|-------------------|
|--------------------|-------------------|-------------------|
|--------------------|-------------------|-------------------|


  W                     W                   W                 
--------------------||-------------------|-------------------|
--------------------||-------------------|-------------------|
-------------------*||-------------------|-------------------|
-------------------*||-------------------|-------------------|
--------------------||-------------------|-------------------|
--------------------||-------------------|-------------------|


  W                   W                   W                   W                 
-------------------|-------------------|-------------------|-------------------|
-------------------|-------------------|-------------------|-------------------|
-------------------|-------------------|-------------------|-------------------|
-------------------|-------------------|-------------------|-------------------|
-------------------|-------------------|-------------------|-------------------|
-------------------|-------------------|-------------------|-------------------|


  W                   W                   W                 
-------------------|-------------------|-------------------|
-------------------|-------------------|-------------------|
-------------------|-------------------|-------------------|
-------------------|-------------------|-------------------|
-------------------|-------------------|-------------------|
-------------------|-------------------|-------------------|


    W                   W                   W                 
|--------------------|-------------------|-------------------|
|--------------------|-------------------|-------------------|
|*-------------------|-------------------|-------------------|
|*-------------------|-------------------|-------------------|
|--------------------|-------------------|-------------------|
|--------------------|-------------------|-------------------|


  W                     W                   W                 
--------------------||-------------------|-------------------|
--------------------||-------------------|-------------------|
-------------------*||-------------------|-------------------|
-------------------*||-------------------|-------------------|
--------------------||-------------------|-------------------|
--------------------||-------------------|-------------------|


    W                   W                   W                 
|--------------------|-------------------|-------------------|
|--------------------|-------------------|-------------------|
|*-------------------|-------------------|-------------------|
|*-------------------|-------------------|-------------------|
|--------------------|-------------------|-------------------|
|--------------------|-------------------|-------------------|


  W                     W                   W                 
--------------------||-------------------|-------------------|
--------------------||-------------------|-------------------|
-------------------*||-------------------|-------------------|
-------------------*||-------------------|-------------------|
--------------------||-------------------|-------------------|
--------------------||-------------------|-------------------|


  W                   W                   W                   W                 
-------------------|-------------------|-------------------|-------------------|
-------------------|-------------------|-------------------|-------------------|
-------------------|-------------------|-------------------|-------------------|
-------------------|-------------------|-------------------|-------------------|
-------------------|-------------------|-------------------|-------------------|
-------------------|-------------------|-------------------|-------------------|


  W                   W                     W                 
-------------------|-------------------||--------------------|
-------------------|-------------------||--------------------|
-------------------|-------------------||*-------------------|
-------------------|-------------------||*-------------------|
-------------------|-------------------||--------------------|
-------------------|-------------------||--------------------|


  W                   W                   W                 4x
-------------------|-------------------|--------------------||
-------------------|-------------------|--------------------||
-------------------|-------------------|-------------------*||
-------------------|-------------------|-------------------*||
-------------------|-------------------|--------------------||
-------------------|-------------------|--------------------||


  W                   W                   W                   W                 
-------------------|-------------------|-------------------|-------------------|
-------------------|-------------------|-------------------|-------------------|
-------------------|-------------------|-------------------|-------------------|
-------------------|-------------------|-------------------|-------------------|
-------------------|-------------------|-------------------|-------------------|
-------------------|-------------------|-------------------|-------------------|


  W                   W                   W                   W                 
-------------------|-------------------|-------------------|-------------------|
-------------------|-------------------|-------------------|-------------------|
-------------------|-------------------|-------------------|-------------------|
-------------------|-------------------|-------------------|-------------------|
-------------------|-------------------|-------------------|-------------------|
-------------------|-------------------|-------------------|-------------------|


  W                     W                   W                 
-------------------||--------------------|-------------------|
-------------------||--------------------|-------------------|
-------------------||*-------------------|-------------------|
-------------------||*-------------------|-------------------|
-------------------||--------------------|-------------------|
-------------------||--------------------|-------------------|


  W                   W                     W                 
-------------------|--------------------||-------------------|
-------------------|--------------------||-------------------|
-------------------|-------------------*||-------------------|
-------------------|-------------------*||-------------------|
-------------------|--------------------||-------------------|
-------------------|--------------------||-------------------|


  W                     W                   W                   
-------------------||--------------------|--------------------||
-------------------||--------------------|--------------------||
-------------------||*-------------------|-------------------*||
-------------------||*-------------------|-------------------*||
-------------------||--------------------|--------------------||
-------------------||--------------------|--------------------||


  W                     W                   W                 
-------------------||--------------------|-------------------|
-------------------||--------------------|-------------------|
-------------------||*-------------------|-------------------|
-------------------||*-------------------|-------------------|
-------------------||--------------------|-------------------|
-------------------||--------------------|-------------------|


  W                   W                 6x  W                 
-------------------|--------------------||-------------------|
-------------------|--------------------||-------------------|
-------------------|-------------------*||-------------------|
-------------------|-------------------*||-------------------|
-------------------|--------------------||-------------------|
-------------------|--------------------||-------------------|


  W                   W                   W                   W                 
-------------------|-------------------|-------------------|-------------------|
-------------------|-------------------|-------------------|-------------------|
-------------------|-------------------|-------------------|-------------------|
-------------------|-------------------|-------------------|-------------------|
-------------------|-------------------|-------------------|-------------------|
-------------------|-------------------|-------------------|-------------------|


  W                   W                   W                   W                 
-------------------|-------------------|-------------------|-------------------|
-------------------|-------------------|-------------------|-------------------|
-------------------|-------------------|-------------------|-------------------|
-------------------|-------------------|-------------------|-------------------|
-------------------|-------------------|-------------------|-------------------|
-------------------|-------------------|-------------------|-------------------|


  W                   W                   W                 
-------------------|-------------------|-------------------|
-------------------|-------------------|-------------------|
-------------------|-------------------|-------------------|
-------------------|-------------------|-------------------|
-------------------|-------------------|-------------------|
-------------------|-------------------|-------------------|


  W                  
-------------------||
-------------------||
-------------------||
-------------------||
-------------------||
-------------------||

Gtr. II



     PM PM                                                        
     E  E  Q    H           W                   W                 
E||----------------------|-------------------|-------------------|
B||----------------------|-------------------|-------------------|
G||----------------------|-------------------|-------------------|
D||--2--2----------------|-------------------|-------------------|
A||--2--2----------------|-------------------|-------------------|
E||--0--0----------------|-------------------|-------------------|


                      PM PM                                    
  W                   E  E  Q    H           W                 
-------------------|----------------------|-------------------|
-------------------|----------------------|-------------------|
-------------------|----------------------|-------------------|
-------------------|--2--2----------------|-------------------|
-------------------|--2--2----------------|-------------------|
-------------------|--0--0----------------|-------------------|


  W                    E    E    E   E   E   E   E   E    
-------------------|-------------------------------------|
-------------------|-------------------------------------|
-------------------|-------------------------------------|
-------------------|-------------------------------------|
-------------------|---xS---xS---xS--xS--xS--xS--xS--x\--|
-------------------|---xS---xS---xS--xS--xS--xS--xS--x\--|


  E  E  E  E  E  E  E  E     E  E  E  E  E  E  E  E   
--------------------------|--------------------------|
--------------------------|--------------------------|
--9--9--9--9--9--9--9--9--|--4--4--4--4--6--6--6--6--|
--9--9--9--9--9--9--9--9--|--4--4--4--4--6--6--6--6--|
--7--7--7--7--7--7--7--7--|--2--2--2--2--4--4--4--4--|
--------------------------|--------------------------|


  E  E  E  E  E  E  E  E     E  E  E  E  E  E  E  E     Q.     E   H         
--------------------------|--------------------------|----------------------|
--------------------------|--------------------------|----------------------|
--------------------------|--------------------------|--4------6S--8--------|
--4--4--4--4--2--2--2--6--|--7--7--7--7--7--7--7--7--|--2------4S--6--------|
--4--4--4--4--2--2--2--6--|--7--7--7--7--7--7--7--7--|----------------------|
--2--2--2--2--0--0--0--4--|--5--5--5--5--5--5--5--5--|----------------------|


  E  E  E  E  E  E  E  E     E  E  E  E  E  E  E  E   
--------------------------|--------------------------|
--------------------------|--------------------------|
--4--4--4--4--6--6--6--6--|--------------------------|
--4--4--4--4--6--6--6--6--|--4--4--4--4--2--2--2--6--|
--2--2--2--2--4--4--4--4--|--4--4--4--4--2--2--2--6--|
--------------------------|--2--2--2--2--0--0--0--4--|


                               PM PM PM     PM    PM     
  E  E  E  E  E  E  E  E       E  E  E  E   E  E  E  E   
--------------------------||----------------------------|
--------------------------||----------------------------|
--------------------------||*--------9-----11-----9-----|
--7--7--7--7--6--6--6--6--||*---------------------------|
--7--7--7--7--6--6--6--6--||----------------------------|
--5--5--5--5--4--4--4--4--||---7--7---------------------|


  PM PM PM     PM    PM       PM PM PM     PM    PM     
  E  E  E  E   E  E  E  E     E  E  E  E   E  E  E  E   
---------------------------|---------------------------|
---------------------------|---------------------------|
--------9-----11-----9-----|--------9-----11-----9-----|
---------------------------|---------------------------|
---------------------------|---------------------------|
--7--7---------------------|--7--7---------------------|


  PM PM PM     PM  PM  PM                                 
  E  E  E  E   E   E   Q         E  E  E  E  E  E  E  E   
-----------------------------||--------------------------|
-----------------------------||--------------------------|
--------9-----11--13--11----*||--------------------------|
----------------------------*||-----7--7--7-----6--6--6--|
-----------------------------||-----7--7--7-----6--6--6--|
--7--7-----------------------||-----5--5--5-----4--4--4--|


    PM PM PM     PM    PM       PM PM PM     PM    PM     
    E  E  E  E   E  E  E  E     E  E  E  E   E  E  E  E   
|----------------------------|---------------------------|
|----------------------------|---------------------------|
|*--------9-----11-----9-----|--------9-----11-----9-----|
|*---------------------------|---------------------------|
|----------------------------|---------------------------|
|---7--7---------------------|--7--7---------------------|


  PM PM PM     PM    PM       PM PM PM     PM  PM  PM      
  E  E  E  E   E  E  E  E     E  E  E  E   E   E   Q       
---------------------------|-----------------------------||
---------------------------|-----------------------------||
--------9-----11-----9-----|--------9-----11--13--11----*||
---------------------------|----------------------------*||
---------------------------|-----------------------------||
--7--7---------------------|--7--7-----------------------||


  PM PM PM     PM    PM                                
  E  E  E  E   E  E  E  E     E  E  E  E  E  E  E  E   
---------------------------|--------------------------|
---------------------------|--------------------------|
--------9-----11-----9-----|--------------------------|
---------------------------|--7--7--7--7--6--6--6--6--|
---------------------------|--7--7--7--7--6--6--6--6--|
--7--7---------------------|--5--5--5--5--4--4--4--4--|


   Q     Q     E   E   E  E     Q    Q    E  E  E  E   
-----------------------------|------------------------|
-----------------------------|------------------------|
--11----11-----x---x---x-----|--9----9----x--x--x-----|
--11----11-----x---x---x-----|--9----9----x--x--x-----|
---9-----9-----x---x---x-----|--7----7----x--x--x-----|
-----------------------------|------------------------|


  E  E  E  E  E  E  E  E     E  E  E  E  E  E  E  E   
--------------------------|--------------------------|
--------------------------|--------------------------|
--------------------------|--4--4--4--4--4--4--4--4--|
--2--2--2--2--2--2--2--2--|--4--4--4--4--4--4--4--4--|
--2--2--2--2--2--2--2--2--|--2--2--2--2--2--2--2--2--|
--0--0--0--0--0--0--0--0--|--------------------------|


   Q     Q     E   E   E  E     W                      Q    Q    Q     Q     
-----------------------------|-------------------||-------------------------|
-----------------------------|-------------------||-------------------------|
--11----11-----x---x---x-----|--9----------------||*--11----9---------11----|
--11----11-----x---x---x-----|--9----------------||*-------------9----------|
---9-----9-----x---x---x-----|--7----------------||-------------------------|
-----------------------------|-------------------||-------------------------|


  Q    Q     E   E   Q        Q    Q    Q     Q     
--------------------------|------------------------|
--------------------------|------------------------|
--9---------11--13--11----|--11----9---------11----|
-------9------------------|-------------9----------|
--------------------------|------------------------|
--------------------------|------------------------|


  Q    Q     E   E   Q         E  E  E  E  E  E  E  E   
---------------------------||--------------------------|
---------------------------||--------------------------|
--9---------11--13--11----*||--9--9--9--9--9--9--9--9--|
-------9------------------*||--9--9--9--9--9--9--9--9--|
---------------------------||--7--7--7--7--7--7--7--7--|
---------------------------||--------------------------|


  E  E  E  E  E  E  E  E     E  E  E  E  E  E  E  E   
--------------------------|--------------------------|
--------------------------|--------------------------|
--9--9--9--9--9--9--9--9--|--4--4--4--4--6--6--6--6--|
--9--9--9--9--9--9--9--9--|--4--4--4--4--6--6--6--6--|
--7--7--7--7--7--7--7--7--|--2--2--2--2--4--4--4--4--|
--------------------------|--------------------------|


  E  E  E  E  E  E  E  E     E  E  E  E  E  E  E  E     Q.     E   H         
--------------------------|--------------------------|----------------------|
--------------------------|--------------------------|----------------------|
--------------------------|--------------------------|--4------6S--8--------|
--4--4--4--4--2--2--2--6--|--7--7--7--7--7--7--7--7--|--2------4S--6--------|
--4--4--4--4--2--2--2--6--|--7--7--7--7--7--7--7--7--|----------------------|
--2--2--2--2--0--0--0--4--|--5--5--5--5--5--5--5--5--|----------------------|


  E  E  E  E  E  E  E  E     E  E  E  E  E  E  E  E   
--------------------------|--------------------------|
--------------------------|--------------------------|
--4--4--4--4--6--6--6--6--|--------------------------|
--4--4--4--4--6--6--6--6--|--4--4--4--4--2--2--2--6--|
--2--2--2--2--4--4--4--4--|--4--4--4--4--2--2--2--6--|
--------------------------|--2--2--2--2--0--0--0--4--|


                               PM PM PM     PM    PM     
  E  E  E  E  E  E  E  E       E  E  E  E   E  E  E  E   
--------------------------||----------------------------|
--------------------------||----------------------------|
--------------------------||*--------9-----11-----9-----|
--7--7--7--7--6--6--6--6--||*---------------------------|
--7--7--7--7--6--6--6--6--||----------------------------|
--5--5--5--5--4--4--4--4--||---7--7---------------------|


  PM PM PM     PM    PM       PM PM PM     PM    PM     
  E  E  E  E   E  E  E  E     E  E  E  E   E  E  E  E   
---------------------------|---------------------------|
---------------------------|---------------------------|
--------9-----11-----9-----|--------9-----11-----9-----|
---------------------------|---------------------------|
---------------------------|---------------------------|
--7--7---------------------|--7--7---------------------|


  PM PM PM     PM  PM  PM        PM PM PM     PM    PM     
  E  E  E  E   E   E   Q         E  E  E  E   E  E  E  E   
-----------------------------||---------------------------|
-----------------------------||---------------------------|
--------9-----11--13--11----*||--------9-----11-----9-----|
----------------------------*||---------------------------|
-----------------------------||---------------------------|
--7--7-----------------------||--7--7---------------------|


  E  E  E  E  E  E  E  E       W                   W                 
--------------------------||--------------------|-------------------|
--------------------------||--------------------|-------------------|
--------------------------||*-------------------|-------------------|
-----7--7--7-----6--6--6--||*-------------------|-------------------|
-----7--7--7-----6--6--6--||--------------------|-------------------|
-----5--5--5-----4--4--4--||--------------------|-------------------|


                                            PM PM PM     PM    PM     
  W                   W                     E  E  E  E   E  E  E  E   
-------------------|--------------------||---------------------------|
-------------------|--------------------||---------------------------|
-------------------|-------------------*||--------9-----11-----9-----|
-------------------|-------------------*||---------------------------|
-------------------|--------------------||---------------------------|
-------------------|--------------------||--7--7---------------------|


  E  E  E  E  E  E  E  E      Q     Q     E   E   E  E   
--------------------------|-----------------------------|
--------------------------|-----------------------------|
--------------------------|--11----11-----x---x---x-----|
--7--7--7--7--6--6--6--6--|--11----11-----x---x---x-----|
--7--7--7--7--6--6--6--6--|---9-----9-----x---x---x-----|
--5--5--5--5--4--4--4--4--|-----------------------------|


  Q    Q    E  E  E  E     E  E  E  E  E  E  E  E     E  E  E  E  E  E  E  E   
------------------------|--------------------------|--------------------------|
------------------------|--------------------------|--------------------------|
--9----9----x--x--x-----|--------------------------|--4--4--4--4--4--4--4--4--|
--9----9----x--x--x-----|--2--2--2--2--2--2--2--2--|--4--4--4--4--4--4--4--4--|
--7----7----x--x--x-----|--2--2--2--2--2--2--2--2--|--2--2--2--2--2--2--2--2--|
------------------------|--0--0--0--0--0--0--0--0--|--------------------------|


   Q     Q     E   E   E  E     W                      Q    Q    Q     Q     
-----------------------------|-------------------||-------------------------|
-----------------------------|-------------------||-------------------------|
--11----11-----x---x---x-----|--9----------------||*--11----9---------11----|
--11----11-----x---x---x-----|--9----------------||*-------------9----------|
---9-----9-----x---x---x-----|--7----------------||-------------------------|
-----------------------------|-------------------||-------------------------|


  Q    Q     E   E   Q        Q    Q    Q     Q     
--------------------------|------------------------|
--------------------------|------------------------|
--9---------11--13--11----|--11----9---------11----|
-------9------------------|-------------9----------|
--------------------------|------------------------|
--------------------------|------------------------|


  Q    Q     E   E   Q     4x  E  E  E  E  E  E  E  E     W                 
---------------------------||--------------------------|-------------------|
---------------------------||--------------------------|-------------------|
--9---------11--13--11----*||--9--9--9--9--9--9--9--9--|-------------------|
-------9------------------*||--9--9--9--9--9--9--9--9--|--9----------------|
---------------------------||--7--7--7--7--7--7--7--7--|--7----------------|
---------------------------||--------------------------|-------------------|


  W                   Q.     Q.     Q       W                 
-------------------|---------------------|-------------------|
-------------------|---------------------|-------------------|
-------------------|---------------------|-------------------|
--L----------------|---------------------|-------------------|
--L----------------|--7------6-----------|-------------------|
-------------------|----------------7----|--L----------------|


   W                   W                   Q.     Q.     Q     
--------------------|-------------------|---------------------|
--------------------|-------------------|---------------------|
--------------------|-------------------|---------------------|
--------------------|-------------------|---------------------|
--/7----------------|--L----------------|--7------6-----------|
--------------------|-------------------|----------------7----|


  W                     W                   W                 
-------------------||--------------------|-------------------|
-------------------||--------------------|-------------------|
-------------------||*-------------------|-------------------|
-------------------||*-------------------|-------------------|
-------------------||--------------------|-------------------|
--L----------------||--------------------|-------------------|


  W                   W                     W                 
-------------------|--------------------||-------------------|
-------------------|--------------------||-------------------|
-------------------|-------------------*||-------------------|
-------------------|-------------------*||-------------------|
-------------------|--------------------||-------------------|
-------------------|--------------------||-------------------|


  W                     W                   W                   
-------------------||--------------------|--------------------||
-------------------||--------------------|--------------------||
-------------------||*-------------------|-------------------*||
-------------------||*-------------------|-------------------*||
-------------------||--------------------|--------------------||
-------------------||--------------------|--------------------||


   Q    Q    Q    Q          Q    Q    Q     Q       Q    Q     E   E   Q     
-----------------------||-------------------------|--------------------------|
-----------------------||-------------------------|--------------------------|
--11----9---------9----||*--11----9---------11----|--9---------11--13--11----|
-------------9---------||*-------------9----------|-------9------------------|
-----------------------||-------------------------|--------------------------|
-----------------------||-------------------------|--------------------------|


   Q    Q    Q     Q       Q    Q     E   E   Q     6x
------------------------|---------------------------||
------------------------|---------------------------||
--11----9---------11----|--9---------11--13--11----*||
-------------9----------|-------9------------------*||
------------------------|---------------------------||
------------------------|---------------------------||


  E  E  E  E  E  E  E  E     E  E  E  E  E  E  E  E   
--------------------------|--------------------------|
--------------------------|--------------------------|
--9--9--9--9--9--9--9--9--|--9--9--9--9--9--9--9--9--|
--9--9--9--9--9--9--9--9--|--9--9--9--9--9--9--9--9--|
--7--7--7--7--7--7--7--7--|--7--7--7--7--7--7--7--7--|
--------------------------|--------------------------|


  E  E  E  E  E  E  E  E     E  E  E  E  E  E  E  E   
--------------------------|--------------------------|
--------------------------|--------------------------|
--4--4--4--4--6--6--6--6--|--------------------------|
--4--4--4--4--6--6--6--6--|--4--4--4--4--2--2--2--6--|
--2--2--2--2--4--4--4--4--|--4--4--4--4--2--2--2--6--|
--------------------------|--2--2--2--2--0--0--0--4--|


  E  E  E  E  E  E  E  E     Q.     E   H           E  E  E  E  E  E  E  E   
--------------------------|----------------------|--------------------------|
--------------------------|----------------------|--------------------------|
--------------------------|--4------6S--8--------|--4--4--4--4--6--6--6--6--|
--7--7--7--7--7--7--7--7--|--2------4S--6--------|--4--4--4--4--6--6--6--6--|
--7--7--7--7--7--7--7--7--|----------------------|--2--2--2--2--4--4--4--4--|
--5--5--5--5--5--5--5--5--|----------------------|--------------------------|


  H        H           W                   W                 
--------------------|-------------------|-------------------|
--------------------|-------------------|-------------------|
--------------------|-------------------|-------------------|
--4--------2--------|--7----------------|--L----------------|
--4--------2--------|--7----------------|--L----------------|
--2--------0--------|--5----------------|--L----------------|


  W                   W                   W                  
-------------------|-------------------|-------------------||
-------------------|-------------------|-------------------||
-------------------|-------------------|-------------------||
--L----------------|--L----------------|--L----------------||
--L----------------|--L----------------|--L----------------||
--L----------------|--L----------------|--L----------------||

Gtr. III



     W                   W                   W                 
E||-------------------|-------------------|-------------------|
B||-------------------|-------------------|-------------------|
G||-------------------|-------------------|-------------------|
D||-------------------|-------------------|-------------------|
A||-------------------|-------------------|-------------------|
E||-------------------|-------------------|-------------------|


  W                   W                   W                   W                 
-------------------|-------------------|-------------------|-------------------|
-------------------|-------------------|-------------------|-------------------|
-------------------|-------------------|-------------------|-------------------|
-------------------|-------------------|-------------------|-------------------|
-------------------|-------------------|-------------------|-------------------|
-------------------|-------------------|-------------------|-------------------|


  W                   W                   W                   W                 
-------------------|-------------------|-------------------|-------------------|
-------------------|-------------------|-------------------|-------------------|
-------------------|-------------------|-------------------|-------------------|
-------------------|-------------------|-------------------|-------------------|
-------------------|-------------------|-------------------|-------------------|
-------------------|-------------------|-------------------|-------------------|


  W                   W                   W                   W                 
-------------------|-------------------|-------------------|-------------------|
-------------------|-------------------|-------------------|-------------------|
-------------------|-------------------|-------------------|-------------------|
-------------------|-------------------|-------------------|-------------------|
-------------------|-------------------|-------------------|-------------------|
-------------------|-------------------|-------------------|-------------------|


  W                     W                   W                 
-------------------||--------------------|-------------------|
-------------------||--------------------|-------------------|
-------------------||*-------------------|-------------------|
-------------------||*-------------------|-------------------|
-------------------||--------------------|-------------------|
-------------------||--------------------|-------------------|


  W                   W                     W                 
-------------------|--------------------||-------------------|
-------------------|--------------------||-------------------|
-------------------|-------------------*||-------------------|
-------------------|-------------------*||-------------------|
-------------------|--------------------||-------------------|
-------------------|--------------------||-------------------|


    PM PM PM PM PM PM PM PM    PM PM PM PM PM PM PM PM  
    E  E  E  E  E  E  E  E     E  E  E  E  E  E  E  E   
|---------------------------|--------------------------|
|---------------------------|--------------------------|
|*--------------------------|--------------------------|
|*--7--7--7--7--9--9--9--9--|--7--7--7--7--6--6--6--6--|
|---------------------------|--------------------------|
|---------------------------|--------------------------|


  PM PM PM PM PM PM PM PM    PM PM PM PM PM PM PM PM    
  E  E  E  E  E  E  E  E     E  E  E  E  E  E  E  E     
--------------------------|---------------------------||
--------------------------|---------------------------||
--------------------------|--------------------------*||
--7--7--7--7--9--9--9--9--|--7--7--7--7--6--6--6--6--*||
--------------------------|---------------------------||
--------------------------|---------------------------||


  PM PM PM PM PM PM PM PM    PM PM PM PM PM PM PM PM                      
  E  E  E  E  E  E  E  E     E  E  E  E  E  E  E  E     W                 
--------------------------|--------------------------|-------------------|
--------------------------|--------------------------|-------------------|
--------------------------|--------------------------|-------------------|
--7--7--7--7--6--6--6--6--|--7--7--7--7--6--6--6--6--|-------------------|
--------------------------|--------------------------|-------------------|
--------------------------|--------------------------|-------------------|


  W                   W                   W                   W                 
-------------------|-------------------|-------------------|-------------------|
-------------------|-------------------|-------------------|-------------------|
-------------------|-------------------|-------------------|-------------------|
-------------------|-------------------|-------------------|-------------------|
-------------------|-------------------|-------------------|-------------------|
-------------------|-------------------|-------------------|-------------------|


  W                     E  E  E  E  E  E  E  E     E  E  E  E  E  E  E  E   
-------------------||---------------------------|--------------------------|
-------------------||---------------------------|--------------------------|
-------------------||*--------------------------|--2--2--2--2--2--2--2--2--|
-------------------||*--2--2--2--2--2--2--2--2--|--2--2--2--2--2--2--2--2--|
-------------------||---2--2--2--2--2--2--2--2--|--0--0--0--0--0--0--0--0--|
-------------------||---0--0--0--0--0--0--0--0--|--------------------------|


  E  E  E  E  E  E  E  E     E  E  E  E  E  E  E  E     
--------------------------|---------------------------||
--------------------------|---------------------------||
--6--6--6--6--6--6--6--6--|--2--2--2--2--2--2--2--2--*||
--6--6--6--6--6--6--6--6--|--2--2--2--2--2--2--2--2--*||
--4--4--4--4--4--4--4--4--|--0--0--0--0--0--0--0--0---||
--------------------------|---------------------------||


  E  E  E  E  E  E  E  E     E  E  E  E  E  E  E  E   
--------------------------|--------0-----------0-----|
--------------------------|-----0-----0-----0-----0--|
--2--2--2--2--2--2--2--2--|--------------------------|
--2--2--2--2--2--2--2--2--|--------------9-----------|
--0--0--0--0--0--0--0--0--|--7-----------------------|
--------------------------|--------------------------|


  E  E  E  E  E  E  E  E     E  E  E  E  E  E  E  E   
--------0-----------0-----|--------0-----------0-----|
-----0-----0-----0-----0--|-----0-----0-----0-----0--|
--------------------------|--------------------------|
--7-----------6-----------|--7-----------6-----------|
--------------------------|--------------------------|
--------------------------|--------------------------|


  E  E  E  E  E  E  E  E     E  E  E  E  E  E  E  E   
--------0-----------0-----|--------0-----------0-----|
-----0-----0-----0-----0--|-----0-----0-----0-----0--|
--------------------------|--------------------------|
--7-----------6-----------|--------------9-----------|
--------------------------|--7-----------------------|
--------------------------|--------------------------|


  E  E  E  E  E  E  E  E     E  E  E  E  E  E  E  E   
--------0-----------0-----|--------0-----------0-----|
-----0-----0-----0-----0--|-----0-----0-----0-----0--|
--------------------------|--------------------------|
--7-----------6-----------|--7-----------6-----------|
--------------------------|--------------------------|
--------------------------|--------------------------|


                               PM PM PM PM PM PM PM PM  
  E  E  E  E  E  E  E  E       E  E  E  E  E  E  E  E   
--------0-----------0-----||---------------------------|
-----0-----0-----0-----0--||---------------------------|
--------------------------||*--------------------------|
--7-----------6-----------||*--7--7--7--7--9--9--9--9--|
--------------------------||---------------------------|
--------------------------||---------------------------|


  PM PM PM PM PM PM PM PM    PM PM PM PM PM PM PM PM  
  E  E  E  E  E  E  E  E     E  E  E  E  E  E  E  E   
--------------------------|--------------------------|
--------------------------|--------------------------|
--------------------------|--------------------------|
--7--7--7--7--6--6--6--6--|--7--7--7--7--9--9--9--9--|
--------------------------|--------------------------|
--------------------------|--------------------------|


  PM PM PM PM PM PM PM PM      PM PM PM PM PM PM PM PM  
  E  E  E  E  E  E  E  E       E  E  E  E  E  E  E  E   
---------------------------||--------------------------|
---------------------------||--------------------------|
--------------------------*||--------------------------|
--7--7--7--7--6--6--6--6--*||--7--7--7--7--6--6--6--6--|
---------------------------||--------------------------|
---------------------------||--------------------------|


  PM PM PM PM PM PM PM PM                              PM PM PM     PM    PM  
  E  E  E  E  E  E  E  E       E  E  E  E  E  E  E  E  E  E  E  E   E  E  E   
--------------------------||---------0-----------0---------------------------|
--------------------------||------0-----0-----0-----0------------------------|
--------------------------||*--------------------------------9-----11-----9--|
--7--7--7--7--6--6--6--6--||*--------------9---------------------------------|
--------------------------||---7---------------------------------------------|
--------------------------||---------------------------7--7------------------|


                          PM PM PM     PM    PM  
  E  E  E  E  E  E  E  E  E  E  E  E   E  E  E   
--------0-----------0---------------------------|
-----0-----0-----0-----0------------------------|
--------------------------------9-----11-----9--|
--7-----------6---------------------------------|
------------------------------------------------|
--------------------------7--7------------------|


                          PM PM PM     PM    PM  
  E  E  E  E  E  E  E  E  E  E  E  E   E  E  E   
--------0-----------0---------------------------|
-----0-----0-----0-----0------------------------|
--------------------------------9-----11-----9--|
--7-----------9---------------------------------|
------------------------------------------------|
--------------------------7--7------------------|


                          PM PM PM     PM  PM          
  E  E  E  E  E  E  E  E  E  E  E  E   E   E   Q       
--------0-----------0--------------------------------||
-----0-----0-----0-----0-----------------------------||
--------------------------------9-----11--13--11----*||
--7-----------6-------------------------------------*||
-----------------------------------------------------||
--------------------------7--7-----------------------||


  E  E  E  E  E  E  E  E     E  E  E  E  E  E  E  E     W                 
--------0-----------0-----|--------0-----------0-----|-------------------|
-----0-----0-----0-----0--|-----0-----0-----0-----0--|-------------------|
--------------------------|--------------------------|-------------------|
--7-----------6-----------|--7-----------6-----------|-------------------|
--------------------------|--------------------------|-------------------|
--------------------------|--------------------------|-------------------|


  W                   W                   W                   W                 
-------------------|-------------------|-------------------|-------------------|
-------------------|-------------------|-------------------|-------------------|
-------------------|-------------------|-------------------|-------------------|
-------------------|-------------------|-------------------|-------------------|
-------------------|-------------------|-------------------|-------------------|
-------------------|-------------------|-------------------|-------------------|


  W                     E  E  E  E  E  E  E  E     E  E  E  E  E  E  E  E   
-------------------||---------------------------|--------------------------|
-------------------||---------------------------|--------------------------|
-------------------||*--------------------------|--2--2--2--2--2--2--2--2--|
-------------------||*--2--2--2--2--2--2--2--2--|--2--2--2--2--2--2--2--2--|
-------------------||---2--2--2--2--2--2--2--2--|--0--0--0--0--0--0--0--0--|
-------------------||---0--0--0--0--0--0--0--0--|--------------------------|


  E  E  E  E  E  E  E  E     E  E  E  E  E  E  E  E   4x
--------------------------|---------------------------||
--------------------------|---------------------------||
--6--6--6--6--6--6--6--6--|--2--2--2--2--2--2--2--2--*||
--6--6--6--6--6--6--6--6--|--2--2--2--2--2--2--2--2--*||
--4--4--4--4--4--4--4--4--|--0--0--0--0--0--0--0--0---||
--------------------------|---------------------------||


  E  E  E  E  E  E  E  E     W                   W                 
--------------------------|-------------------|-------------------|
--------------------------|-------------------|-------------------|
--2--2--2--2--2--2--2--2--|-------------------|-------------------|
--2--2--2--2--2--2--2--2--|-------------------|-------------------|
--0--0--0--0--0--0--0--0--|-------------------|-------------------|
--------------------------|-------------------|-------------------|


  W                   W                   W                   W                 
-------------------|-------------------|-------------------|-------------------|
-------------------|-------------------|-------------------|-------------------|
-------------------|-------------------|-------------------|-------------------|
-------------------|-------------------|-------------------|-------------------|
-------------------|-------------------|-------------------|-------------------|
-------------------|-------------------|-------------------|-------------------|


  W                   W                     E  E  E  E  E  E  E  E   
-------------------|-------------------||---------0-----------0-----|
-------------------|-------------------||------0-----0-----0-----0--|
-------------------|-------------------||*--------------------------|
-------------------|-------------------||*--------------9-----------|
-------------------|-------------------||---7-----------------------|
-------------------|-------------------||---------------------------|


  E  E  E  E  E  E  E  E     E  E  E  E  E  E  E  E   
--------0-----------0-----|--------0-----------0-----|
-----0-----0-----0-----0--|-----0-----0-----0-----0--|
--------------------------|--------------------------|
--7-----------6-----------|--7-----------9-----------|
--------------------------|--------------------------|
--------------------------|--------------------------|


  E  E  E  E  E  E  E  E       E  E  E  E  E  E  E  E   
--------0-----------0------||--------0-----------0-----|
-----0-----0-----0-----0---||-----0-----0-----0-----0--|
--------------------------*||--------------------------|
--7-----------6-----------*||--7-----------6-----------|
---------------------------||--------------------------|
---------------------------||--------------------------|


  E  E  E  E  E  E  E  E       E  E  E  E  E  E  E  E   
--------0-----------0-----||---------0-----------0-----|
-----0-----0-----0-----0--||------0-----0-----0-----0--|
--------------------------||*--------------------------|
--7-----------6-----------||*--7-----------9-----------|
--------------------------||---------------------------|
--------------------------||---------------------------|


  E  E  E  E  E  E  E  E       E  E  E  E  E  E  E  E   
--------0-----------0------||--------0-----------0-----|
-----0-----0-----0-----0---||-----0-----0-----0-----0--|
--------------------------*||--------------------------|
--7-----------6-----------*||--7-----------6-----------|
---------------------------||--------------------------|
---------------------------||--------------------------|


    E  E  E  E  E  E  E  E     E  E  E  E  E  E  E  E   
|---------------------------|--------------------------|
|---------------------------|--------------------------|
|*--------------------------|--2--2--2--2--2--2--2--2--|
|*--2--2--2--2--2--2--2--2--|--2--2--2--2--2--2--2--2--|
|---2--2--2--2--2--2--2--2--|--0--0--0--0--0--0--0--0--|
|---0--0--0--0--0--0--0--0--|--------------------------|


  E  E  E  E  E  E  E  E     E  E  E  E  E  E  E  E   6x
--------------------------|---------------------------||
--------------------------|---------------------------||
--6--6--6--6--6--6--6--6--|--2--2--2--2--2--2--2--2--*||
--6--6--6--6--6--6--6--6--|--2--2--2--2--2--2--2--2--*||
--4--4--4--4--4--4--4--4--|--0--0--0--0--0--0--0--0---||
--------------------------|---------------------------||


  E  E  E  E  E  E  E  E     W                   W                 
--------------------------|-------------------|-------------------|
--------------------------|-------------------|-------------------|
--2--2--2--2--2--2--2--2--|-------------------|-------------------|
--2--2--2--2--2--2--2--2--|-------------------|-------------------|
--0--0--0--0--0--0--0--0--|-------------------|-------------------|
--------------------------|-------------------|-------------------|


  W                   W                   W                   W                 
-------------------|-------------------|-------------------|-------------------|
-------------------|-------------------|-------------------|-------------------|
-------------------|-------------------|-------------------|-------------------|
-------------------|-------------------|-------------------|-------------------|
-------------------|-------------------|-------------------|-------------------|
-------------------|-------------------|-------------------|-------------------|


  W                   W                   W                   W                 
-------------------|-------------------|-------------------|-------------------|
-------------------|-------------------|-------------------|-------------------|
-------------------|-------------------|-------------------|-------------------|
-------------------|-------------------|-------------------|-------------------|
-------------------|-------------------|-------------------|-------------------|
-------------------|-------------------|-------------------|-------------------|


  W                   W                  
-------------------|-------------------||
-------------------|-------------------||
-------------------|-------------------||
-------------------|-------------------||
-------------------|-------------------||
-------------------|-------------------||


Duration Legend
---------------
W - whole
H - half
Q - quarter
E - 8th
S - 16th
T - 32nd
X - 64th
. - note dotted
|-n-|  - n-tuplets


Tablature Legend
----------------
L - tied note
x - dead note
g - grace note
(n) - ghost note
> - accentuded note
NH - natural harmonic
AH - artificial harmonic
TH - tapped harmonic
SH - semi harmonic
PH - pitch harmonic
h - hammer on
p - pull off
b - bend
br - bendRelease
pb - preBend
pbr - preBendRelease
brb - bendReleaseBend
\n/ - tremolo bar dip
\n - tremolo bar dive
-/n - tremolo bar Release up
/n\ - tremolo bar inverted dip
/n - tremolo bar return
-\n - tremolo bar Release down
S - shift slide
s - legato slide
/ -  slide into from below or out of upwards
\ -  slide into from above or out of downwards
~ - vibrato
W - wide vibrato
tr - trill
TP - tremolo picking
T - tapping
S - slap
P - pop
< - fade in
^ - brush up
v - brush down

            
            
Suggest correction
Creating personal tab
Creating personal tab
You can edit any tab online and save it as your Personal.

You can edit, replace or remove any tab part or add personal notes – all changes will be seen only by you.

Personal tabs can be accessed anytime from any device, even offline.
Learn more »
Give kudos to tab author, rate the tab!
1 2 3 4 5
comments
print report bad tab
1 comment total.
0 reply
jiggy182 92 Feb 22, 2009 12:15 PM

rated 5 stars but would have been better had the tab actually been set out like most tabs, easy to read and as much tab on each page

guest
You may want to rate the tab now too:
select rating
Wanna post a correction for this tab? Suggest correction