Oops, an error
Loading. Please wait.

Mr Thompson bass

4 views 1 this week
no commentswrite comment
1 2 3 4 5
3 more votes to show rating
add to favorites
×
Save as Personal and add changes to this tab that will be seen only by you. Learn more ›
×
You can save this tab as Personal to edit and correct it or add notes. All changes will be seen only by you. Learn more »
launch autoscroll
font size
0
reset
guitar tuner
edit
Autoscroll
slow
fast
+/-
esc
set tempo
stop
Author
Difficulty
Tabbed by: 6METAL6BASSIST6
E-mail: petergriffinav@gmail.com

Tuning: EADG

G|----------------------------------------------------------------|.
D|3-----------3-------------------2-----------2-------------------|.
A|----------------------------------------------------------------|.
E|----------------------------------------------------------------|.
                                                                   . x2
G|----------------------------------------------------------------|.
D|0-----------0-----------------------------------0---0---2---2---|.
A|--------------------------------3-------3---3-------------------|.
E|----------------------------------------------------------------|.

0:15

G|----------------------------------------------------------------|
D|3-----------3---3---------------2-----------2---2-----------0---|
A|----------------------------------------------------------------|
E|----------------------------------------------------------------|

G|------------------------------------------------3---2-----------|
D|----------------------------2---3-----------3-----------5---3---|
A|3-----------3---3-----------------------------------------------|
E|----------------------------------------------------------------|

G|----------------------------------------------------------------|
D|3-----------3---3-----------------------------------------------|
A|--------------------------------1-----------1---1---------------|
E|----------------------------------------------------------------|

G|----3-------2---------------------------------------------------|
D|--------------------5-------3-------2-------0-------------------|
A|3---------------------------------------------------3-------3---|
E|----------------------------------------------------------------|

0:30

G|----------------------------------------------------------------|
D|3-----------3---3---------------2-----------2---2-----------0---|
A|----------------------------------------------------------------|
E|----------------------------------------------------------------|

G|------------------------------------------------3---2-----------|
D|----------------------------2---3-----------3-----------5---3---|
A|3-----------3---3-----------------------------------------------|
E|----------------------------------------------------------------|

G|----------------------------------------------------------------|
D|3-----------3---3-----------------------------------------------|
A|--------------------------------1-----------1---1---------------|
E|----------------------------------------------------------------|

G|----------------------------------------------------------------|
D|----------------------------------------------------------------|
A|3-----------3-------------------3-----------3-------------------|
E|----------------------------------------------------------------|

0:46

G|----------------------------------------------------------------|
D|----------------0-------3---------------------------------------|
A|1-----------1-------------------3-------------/-3-----/-3-------|
E|----------------------------------------------------------------|

G|----------------------------------------------------------------|
D|----------------------------------------------------------------|
A|----------------0-------3-------5-------------/-5-----/-5-------|
E|1---------------------------------------------------------------|

G|----------------------------------------------------------------|
D|------------------------------------------------3-------0-------|
A|----------------0-------3-------1-------------------------------|
E|1---------------------------------------------------------------|

G|----3-------2---------------------------------------------------|
D|--------------------5-------3-------2-------0-------------------|
A|3---------------------------------------------------3-------3---|
E|----------------------------------------------------------------|

0:58

G|----------------------------------------------------------------|
D|----------------0-------3---------------------------------------|
A|1-------------------------------3-------------/-3-----/-3-------|
E|----------------------------------------------------------------|

G|----------------------------------------------------------------|
D|----------------------------------------------------------------|
A|----------------0-------3-------5-------------/-5-----/-5-------|
E|1---------------------------------------------------------------|

G|----------------------------------------------------------------|
D|----------------0-------3-------5-------------/-5-----/-5-------|
A|1---------------------------------------------------------------|
E|----------------------------------------------------------------|

G|----------------------------------------------------------------|
D|----------------------------------------------------------------|
A|3-----------3-------------------3-----------3-------------------|
E|----------------------------------------------------------------|

1:13

G|----------------------------------------------------------------|
D|----------------0-------3---------------------------------------|
A|1-------------------------------3-------------/-3-----/-3-------|
E|----------------------------------------------------------------|

G|----------------------------------------------------------------|
D|----------------------------------------------------------------|
A|----------------0-------3-------5-------------/-5-----/-5-------|
E|1---------------------------------------------------------------|

G|----------------------------------------------------------------|
D|------------------------------------------------3-------0-------|
A|----------------0-------3-------1-------------------------------|
E|1---------------------------------------------------------------|

G|----3-------2---------------------------------------------------|
D|--------------------5-------3-------2-------0-------------------|
A|3---------------------------------------------------3-------3---|
E|----------------------------------------------------------------|

1:27

G|----------------------------------------------------------------|
D|----------------0-------3---------------------------------------|
A|1-------------------------------3-------------/-3-----/-3-------|
E|----------------------------------------------------------------|

G|----------------------------------------------------------------|
D|----------------------------------------------------------------|
A|----------------0-------3-------5-------------/-5-----/-5-------|
E|1---------------------------------------------------------------|

G|----------------------------------------------------------------|
D|----------------0-------3-------5-----------------------5-------|
A|1-----------------------------------------------5---------------|
E|----------------------------------------------------------------|

G|----------------------------------------------------------------|
D|----------------------------------------------------------------|
A|3-----------3-------------------3-----------3-------------------|
E|----------------------------------------------------------------|

G|------------------------|
D|------------------------|
A|3-----------------------|
E|------------------------|

1:43

G|------------------2-----------------------2-----------------------2-------------------2---5-----|
D|------------5-------5-2-----------2-5-------5-2-----------2-5-------5-2-----------2-5---5-----5-|
A|3-----------------------3-----------------------3-----------------------3-----------------------|
E|------------------------------------------------------------------------------------------------|

G|------------------------------------------------------------------2-----------------------------|
D|3---------------------------------------------------------2-5-------5-2-------------------------|
A|----------0-3-----5-3-0-----------0-1-----2-----3-----------------------3-----------------------|
E|------------------------1---------------------------------------------------------0-1-----3-----|

2:01

G|------------------------------------------------------------------------------------------------|
D|------------------2---2-3---------------------------------2-5-----2-3-4-5-----------------------|
A|----------2-5-------5-------------0-1-----2-----3-----------------------------------0-----2-----|
E|3-----------------------------------------------------------------------------3-----------------|

G|------------------2-----------------------2-----------------------2---2-5-----|
D|----------2-5-------5-2-----------2-5-------5-2-----------2-5-------5---------| fades out here.
A|3-----------------------3-----------------------3-----------------------------|
E|------------------------------------------------------------------------------|
Suggest correction
Creating personal tab
Creating personal tab
You can edit any tab online and save it as your Personal.

You can edit, replace or remove any tab part or add personal notes – all changes will be seen only by you.

Personal tabs can be accessed anytime from any device, even offline.
Learn more »
Give kudos to tab author, rate the tab!
1 2 3 4 5
comments
print report bad tab
guest
You may want to rate the tab now too:
select rating
Wanna post a correction for this tab? Suggest correction