Oops, an error
Loading. Please wait.

Dead And Born And Grown tab

version 1
version 1

Whole song

  • Capo is set according to the album version. Use ca... Show more

Interactive

256 views 15 this week
no commentswrite comment
1 2 3 4 5
2 more votes to show rating
add to favorites
×
Save as Personal and add changes to this tab that will be seen only by you. Learn more ›
×
You can save this tab as Personal to edit and correct it or add notes. All changes will be seen only by you. Learn more »
launch autoscroll
font size
0
reset
how to read this tab
guitar tuner
edit
Autoscroll
slow
fast
+/-
esc
set tempo
stop
[Intro]
e|-------------|---------------|
B|-------------|---------------|
G|-------------|---------------|
D|-------------|---------------|
A|-0--0--0--0--|-0--0--0--0----|
E|--0--0--0--0-|--0--0--0--0h2-|  x2

[Verse]
e|-------------|-------------|
B|-------------|-------------|
G|-------------|-------------|
D|-------------|-------------|
A|-0--0--0--0--|-0--0--0--0--|
E|--0--0--0--0-|--0--0--0--0-|
  Colors fade away and

e|-------------|-------------|
B|-------------|-------------|
G|-------------|-------------|
D|-------------|-------------|
A|-0--0--0--0--|-0--0--0--0--|
E|--2--2--2--2-|--2--2--2--2-|
  Things that were aren't here today

e|-------------|-------------|
B|-------------|-------------|
G|-------------|-------------|
D|-------------|-------------|
A|-0--0--0--0--|-0--0--0--0--|
E|--3--3--3--3-|--2--2--2--2-|
  But time it doesn't matter anymore

e|---------------|-------------|
B|---------------|-------------|
G|---------------|-------------|
D|---------------|-------------|
A|-0--0--0--0----|-0--0--0--0--|
E|--0--0--0--0h2-|--0--0--0--0-|

e|-------------|-------------|---------------|-------------|
B|-------------|-------------|---------------|-------------|
G|-------------|-------------|---------------|-------------|
D|-------------|-------------|---------------|-------------|
A|-2--2--2--2--|-2--2--2--2--|-0--0--0--0----|-0--0--0--0--|
E|--2--2--2--2-|--0--0--0--0-|--0--0--0--0h2-|--0--0--0--0-|
  I'll meet you where we were before

[Chorus]
e|----------------|-------------|-------------|
B|----------------|-------------|-------------|
G|----------------|-------------|-------------|
D|-------------2--|-0--0--0--0--|-0--0--0--0--|
A|-0---4---4---2--|--0--0--0--0-|--8--8--8--8-|
E|-0---1---2------|-------------|-------------|
  And I'll stay the same and stand here on my own

e|-------------|--------------|---------------|-------------|
B|-------------|--------------|---------------|-------------|
G|-------------|--------------|---------------|-------------|
D|-0--0--0--0--|-0--0--0--0---|---------------|-------------|
A|--8--8--8--8-|--2--2--2--2--|-0--0--0--0----|-0--0--0--0--|
E|-------------|--------------|--0--0--0--0h2-|--0--0--0--0-|
  'Til everything is dead and born and grown

[Verse]
e|-------------|-------------|
B|-------------|-------------|
G|-------------|-------------|
D|-------------|-------------|
A|-0--0--0--0--|-0--0--0--0--|
E|--0--0--0--0-|--0--0--0--0-|
  Just go at your own pace

e|-------------|-------------|
B|-------------|-------------|
G|-------------|-------------|
D|-------------|-------------|
A|-0--0--0--0--|-0--0--0--0--|
E|--2--2--2--2-|--2--2--2--2-|
  As you sit and tumble down from grace

e|-------------|-------------|
B|-------------|-------------|
G|-------------|-------------|
D|-------------|-------------|
A|-0--0--0--0--|-0--0--0--0--|
E|--3--3--3--3-|--2--2--2--2-|
  We're safe in one another's company

e|---------------|-------------|
B|---------------|-------------|
G|---------------|-------------|
D|---------------|-------------|
A|-0--0--0--0----|-0--0--0--0--|
E|--0--0--0--0h2-|--0--0--0--0-|

e|-------------|-------------|---------------|-------------|
B|-------------|-------------|---------------|-------------|
G|-------------|-------------|---------------|-------------|
D|-------------|-------------|---------------|-------------|
A|-2--2--2--2--|-2--2--2--2--|-0--0--0--0----|-0--0--0--0--|
E|--2--2--2--2-|--0--0--0--0-|--0--0--0--0h2-|--0--0--0--0-|
  I need you just as much as you need me

[Chorus]
e|---------|---------|-------------|-------------|
B|---------|---------|-------------|-------------|
G|---------|---------|-------------|-------------|
D|---------|-----2---|-0--0--0--0--|-0--0--0--0--|
A|-0---4---|-4---2---|--0--0--0--0-|--8--8--8--8-|
E|-0---1---|-2-------|-------------|-------------|
  And I'll stay the same and stand here on my own

e|-------------|-------------|---------------|-------------|
B|-------------|-------------|---------------|-------------|
G|-------------|-------------|---------------|-------------|
D|-0--0--0--0--|-0--0--0--0--|---------------|-------------|
A|--8--8--8--8-|--2--2--2--2-|-0--0--0--0----|-0--0--0--0--|
E|-------------|-------------|--0--0--0--0h2-|--0--0--0--0-|
  'Til everything is dead and born and grown

[Bridge]
e|-------------|-------------|---------------|-------------|
B|-------------|-------------|---------------|-------------|
G|-------------|-------------|---------------|-------------|
D|-------------|-------------|---------------|-------------|
A|-2--2--2--2--|-2--2--2--2--|-0--0--0--0----|-0--0--0--0--|
E|--2--2--2--2-|--0--0--0--0-|--0--0--0--0h2-|--0--0--0--0-|
  Pieces set to fall

e|-------------|-------------|---------------|-------------|
B|-------------|-------------|---------------|-------------|
G|-------------|-------------|---------------|-------------|
D|-------------|-0--0--0--0--|---------------|-------------|
A|-2--2--2--2--|--8--8--8--8-|-0--0--0--0----|-0--0--0--0--|
E|--2--2--2--2-|-------------|--0--0--0--0h2-|--0--0--0--0-|
  I might hear it all

[Verse]
e|-------------|-------------|
B|-------------|-------------|
G|-------------|-------------|
D|-------------|-------------|
A|-0--0--0--0--|-0--0--0--0--|
E|--0--0--0--0-|--0--0--0--0-|
  As a little child may learn

e|-------------|-------------|
B|-------------|-------------|
G|-------------|-------------|
D|-------------|-------------|
A|-0--0--0--0--|-0--0--0--0--|
E|--2--2--2--2-|--2--2--2--2-|
  To sit or stand or wait his turn

e|-------------|-------------|
B|-------------|-------------|
G|-------------|-------------|
D|-------------|-------------|
A|-0--0--0--0--|-0--0--0--0--|
E|--3--3--3--3-|--2--2--2--2-|
  The things you know will slowly slip away

e|---------------|-------------|
B|---------------|-------------|
G|---------------|-------------|
D|---------------|-------------|
A|-0--0--0--0----|-0--0--0--0--|
E|--0--0--0--0h2-|--0--0--0--0-|

e|-------------|-------------|---------------|-------------|
B|-------------|-------------|---------------|-------------|
G|-------------|-------------|---------------|-------------|
D|-------------|-------------|---------------|-------------|
A|-2--2--2--2--|-2--2--2--2--|-0--0--0--0----|-0--0--0--0--|
E|--2--2--2--2-|--0--0--0--0-|--0--0--0--0h2-|--0--0--0--0-|
  All we have is here and now today

[Chorus]
e|---------|---------|-------------|-------------|
B|---------|---------|-------------|-------------|
G|---------|---------|-------------|-------------|
D|---------|-----2---|-0--0--0--0--|-0--0--0--0--|
A|-0---4---|-4---2---|--0--0--0--0-|--8--8--8--8-|
E|-0---1---|-2-------|-------------|-------------|
  And I'll stay the same and stand here on my own

e|-------------|-------------|---------------|-------------|
B|-------------|-------------|---------------|-------------|
G|-------------|-------------|---------------|-------------|
D|-0--0--0--0--|-0--0--0--0--|---------------|-------------|
A|--8--8--8--8-|--2--2--2--2-|-0--0--0--0----|-0--0--0--0--|
E|-------------|-------------|--0--0--0--0h2-|--0--0--0--0-|
  'Til everything is dead and born and grown

e|-------------|-------------|---------------|-------------|
B|-------------|-------------|---------------|-------------|
G|-------------|-------------|---------------|-------------|
D|-------------|-------------|---------------|-------------|
A|-2--2--2--2--|-2--2--2--2--|-0--0--0--0----|-0--0--0--0--|
E|--2--2--2--2-|--0--0--0--0-|--0--0--0--0h2-|--0--0--0--0-|
  'Til everything is dead and born and grown

[Bridge]
e|-------------|-------------|---------------|-------------|
B|-------------|-------------|---------------|-------------|
G|-------------|-------------|---------------|-------------|
D|-------------|-------------|---------------|-------------|
A|-2--2--2--2--|-2--2--2--2--|-0--0--0--0----|-0--0--0--0--|
E|--2--2--2--2-|--0--0--0--0-|--0--0--0--0h2-|--0--0--0--0-|
  Pieces set to fall

e|-------------|-------------|---------------|-------------|
B|-------------|-------------|---------------|-------------|
G|-------------|-------------|---------------|-------------|
D|-------------|-0--0--0--0--|---------------|-------------|
A|-2--2--2--2--|--8--8--8--8-|-0--0--0--0----|-0--0--0--0--|
E|--2--2--2--2-|-------------|--0--0--0--0h2-|--0--0--0--0-|
  I might hear it all

e|-------------|-------------|---------------|-------------|
B|-------------|-------------|---------------|-------------|
G|-------------|-------------|---------------|-------------|
D|-------------|-------------|---------------|-------------|
A|-2--2--2--2--|-2--2--2--2--|-0--0--0--0----|-0--0--0--0--|
E|--2--2--2--2-|--0--0--0--0-|--0--0--0--0h2-|--0--0--0--0-|
  Pieces set in fall

e|-------------|--------------------------|
B|-------------|--------------------------|
G|-------------|--------------------------|
D|-------------|-0----0----0----0---------|
A|-2--2--2--2--|---8----8----8----8--\--0-|
E|--2--2--2--2-|------------------------0-|
  Dead and born and grown


************************************

| h   Hammer-on
| \   Slide down

************************************

            
            
Suggest correction
Creating personal tab
Creating personal tab
You can edit any tab online and save it as your Personal.

You can edit, replace or remove any tab part or add personal notes – all changes will be seen only by you.

Personal tabs can be accessed anytime from any device, even offline.
Learn more »
Give kudos to tab author, rate the tab!
1 2 3 4 5
comments
print report bad tab
guest
You may want to rate the tab now too:
select rating
Wanna post a correction for this tab? Suggest correction