Oops, an error
Loading. Please wait.

Ghosts Of Mississippi Chords

106 views 36 this week
no commentswrite comment
1 2 3 4 5
2 more votes to show rating
add to favorites
launch autoscroll
font size
0
reset
transpose
0
reset
display chords
guitar tuner
Autoscroll
slow
fast
+/-
esc
set tempo
stop
Help us to improve Ultimate-Guitar.com Take our survey!
×
Author
The SteelDrivers
Ghosts Of Mississippi
Reckless
Standard Tuning

[Intro]
E|---------------------------------------------------------|
B|---5---3------3------------------------------------------|
G|------------4----4-2--0-2-4-2--0-------------------------|
D|---------------------------------4--2-0-2----------------|
A|---------------------------------------------------------|
E|---------------------------------------------------------|

E|---------------------------------------------------------|
B|---------------------------------------------------------|
G|-------------0-2--4-2-0-2-4-2--0-------------------------|
D|------0-2-2----------------------4--2-0-2----------------|
A|----2----------------------------------------------------|
E|---------------------------------------------------------|

[Verse 1]
E
Late one night behind corn whiskey
E
I fell asleep with a guitar in my hand
E
I dreamed about the ghosts of Mississippi
        G          A                 E
And the blues came walkin' in like a man
E
Without a word I passed that guitar over
E
He tuned it up like I'd never seen

A crooked smile was his expression
        G                  A              E
Then he closed his eyes and began to sing

[Chorus]
E
Oh Lord why have you forsaken me
E
Got me down in Mississippi where I don't want to be
E
Oh Lord why have you forsaken me
E
Got me down in Mississippi where I don't want to be

[Verse 2]
E
When I woke up I looked into the mirror
E
I saw no reflection for a while
E
But as my eyes came into focus
  G    A                  E          
I recognized that crooked smile

[Chorus]
E
Oh Lord why have you forsaken me
E
Got me down in Mississippi where I don't want to be
E
Oh Lord why have you forsaken me
E
Got me down in Mississippi where I don't want to be

[Verse 3]
E
Late one night behind corn whiskey
E
I fell asleep with a guitar in my hand
E
I dreamed about the ghosts of Mississippi
        G          A              E
And the blues came walkin' like a man

[Chorus]
E
Oh Lord why have you forsaken me
E
Got me down in Mississippi where I don't want to be
E
Oh Lord why have you forsaken me
E
Got me down in Mississippi where I don't want to be
Suggest correction
Give kudos to tab author, rate the tab!
1 2 3 4 5
comments
print report bad tab
guest
You may want to rate the tab now too:
select rating
Wanna post a correction for this tab? Suggest correction