Oops, an error
Loading. Please wait.

Where Rainbows Never Die tab

version 2
version 2

Whole song

28,631 views 126 this week
1 commentread comment
1 2 3 4 5
x 21
add to favorites
×
Save as Personal and add changes to this tab that will be seen only by you. Learn more ›
×
You can save this tab as Personal to edit and correct it or add notes. All changes will be seen only by you. Learn more »
launch autoscroll
font size
0
reset
how to read this tab
guitar tuner
edit
Autoscroll
slow
fast
+/-
esc
set tempo
stop
[Intro Riff]

e|---------------------------------------------------------------|
B|----3-----------------------------3-----3------3---------------|
G|----2-----2----2------------------0-----0------2-----2----2----|
D|--0-------2----2---------4-------------------0-------2----2----|
A|--------0---0------0-2---------------2----2--------0---0-----0-|
E|------3---------------------2--3-----------------3-------------|


e|---------------------------------------------------------------|
B|------------3-----3------3-------------------------------------|
G|------------0-----0------2-----2----2------0-------------------|
D|---4-------------------0-------2----2--------4-0--------0------|
A|2--------------2----2--------0---0-----0-2---------0h2---------|
E|-----2--3------------------3---------------------3-------------|


[Verses] The same riff but without the ending...

e|----------------------------------------------|
B|----3-----------------------------3-----3-----|
G|----2-----2----2------------------0-----0-----| Repeat
D|--0-------2----2--------4---------------------|
A|--------0---0------0-2---------------2----2---|
E|------3-------------------2--3----------------|


Keep repeating riff throughout verse and chorus then...

Bm        A      G
When I reach the other side
B           A                 G
West of where the sunsets

Where rainbows never die... (Riff)


[Bridge]

 A       
I've got one last thing to do
 G
One more mile before I'm through
 A
Casting off these earthly chains
 G
Going where there's no more pain...


During the solo the guitar strums...D, A, Bm, G


S-M-F

************************************

| h  Hammer-on

************************************

            
            
Suggest correction
Creating personal tab
Creating personal tab
You can edit any tab online and save it as your Personal.

You can edit, replace or remove any tab part or add personal notes – all changes will be seen only by you.

Personal tabs can be accessed anytime from any device, even offline.
Learn more »
comments
print report bad tab
1 comment total.
0 reply
twyand 10 Apr 26, 2017 09:47 PM

👍

guest
You may want to rate the tab now too:
select rating
Wanna post a correction for this tab? Suggest correction