Oops, an error
Loading. Please wait.

Being Here Bass Tab

825 views 1 this week
no commentswrite comment
1 2 3 4 5
please rate
add to favorites
launch autoscroll
font size
0
reset
guitar tuner
Tab Pro tools
  • play this tab
  • loop segment
  • change instrument
  • show fretboard
  • metronome
Autoscroll
slow
fast
+/-
esc
set tempo
stop
-------------------------------------------------------------------------------
			     Being Here - The Stills
-------------------------------------------------------------------------------

Tabbed By : Chip
e-mail: chip80@gmail.com

Tuning: EADG

Intro (0:27)
G|---------------------------------------------------------------------------|
D|---------------------------------------------------------------------------|
A|---------------------------------------------------------------------------|
E|-2\------------------------------------------------------------------------|

Verse 1 (No bass)

Chorus (1:00) Repeat 2X
G|---------------------------------------------------------------------------|
D|-----------------------666-------------------------------------------------|
A|---------777-------7-9-----999-777-----------------------------------------|
E|-444-777-----77777----------------777777-----------------------------------|

Verse 2 (1:17) Repeat 4x
G|---------------------------------------------------------------------------|
D|---------------------------------------------------------------------------|
A|---------------------222222------------------------------------------------|
E|-7\-0000000000000000--------2222222222-(10x)-------------------------------|

Repeat Chorus (1:47) 2x

Bridge (2:03)

G|---------------------10-10-10----------------------------------------------|
D|---------------------------------------------------------------------------|
A|-------------------------------888888888888888888886666666666--------------|
E|---------------------------------------------------------------------------|

G|---------------------------------------------------------------------------|
D|------------------------------------------------10-11-11-11-10-10-10-13----|
A|-/11-11-11-11-11-11-11-11-----11-11-11-11-----11---------------------------|
E|--------------------------9h11------------9h11-----------------------------|

G|---------------------------------------------------------------------------|
D|-13-13-13-13-13-11/13-13-13-13-13-13-13-13---------------------------------|
A|---------------------------------------------------------------------------|
E|---------------------------------------------------------------------------|

Verse 3 (2:30)
G|---------------------------------------------------------------------------|
D|---------------------------------------------------------------------------|
A|-22222222222222222222----------22222222222222222222------------------------|
E|---------------------2222222222--------------------2222222222--------------|

Repeat Chorus (2:45) with following variation second time through

G|---------------------------------------------------------------------------|
D|-----------------------666-------------------------------------------------|
A|---------777-------7-9-----999-777----/14-14-14-14-------------------------|
E|-444-777-----77777-----------------77--------------------------------------|

Repeat Chorus (3:00) again and end on 

G|---------------------------------------------------------------------------|
D|---------------------------------------------------------------------------|
A|-9-------------------------------------------------------------------------|
E|---------------------------------------------------------------------------|


| /  slide up
| \  slide down
| h  hammer-on
| p  pull-off
| ~  vibrato
| +  harmonic
| x  Mute note
===============================================================================
comments
We did not receive enough feedback on this tab! Please rate:
print report bad tab
1 2 3 4 5
I want to post or [tab]
guest
You may want to rate the tab now too:
select rating
Please do not post tabs as comments. Select "correction" instead!