Oops, an error
Loading. Please wait.

Eastren Europe Bass Tab

298 views 1 this week
no commentswrite comment
1 2 3 4 5
please rate
add to favorites
launch autoscroll
font size
0
reset
guitar tuner
Tab Pro tools
  • play this tab
  • loop segment
  • change instrument
  • show fretboard
  • metronome
Autoscroll
slow
fast
+/-
esc
set tempo
stop
0:05
G----------------------------------------------------|
D----------------------------------------------------|
A----------------------------------------------------|
E-1515/3---------------------------------------------|

0:06
This is the main riff:
G----------------------------------------------------|
D----------------------------------------------------|
A---------11-33--------------------------------------|
E-3-333333-------------------------------------------|

G----------------------------------------------------|
D----------------------------------------------------|
A---------11-3333------------------------------------|
E-3-333333-------------------------------------------| x6

0:29
G----------------------------------------------------|
D----------------------------------------------------|
A----------------------------------------------------|
E-3--------------------------------------------------|

0:32 play main riff

0:44
build
G----------------------------------------------------|
D----------------------------------------------------|
A----------------------------------------------------|
E-3-333333--3-333333---------------------------------|

0:46
G----------------------------------------------------|
D----------------------------------------------------|
A----------3/15x5------------------------------------|
E--3-333333------------------------------------------| x2

G----------------------------------------------------|
D----------------------------------------------------|
A----------3/15x5------------------------------------|
E--1-111111------------------------------------------|

G----------------------------------------------------|
D----------------------------------------------------|
A----------10x6/15x5---------------------------------|
E----------------------------------------------------|

1:59
G----------------------------------------------------|
D----------------------------------------------------|
A-13x10-15x10----------------------------------------|
E----------------------------------------------------| x2

1:11
then is goes back to the main riff and repeats, just listen to the song! hope i tabbed 
well enough.
comments
We did not receive enough feedback on this tab! Please rate:
print report bad tab
1 2 3 4 5
I want to post or [tab]
guest
You may want to rate the tab now too:
select rating
Please do not post tabs as comments. Select "correction" instead!