Oops, an error
Loading. Please wait.

Lola Stars And Stripes Tab

version 1
version 1

Whole song

Interactive

3,187 views 3 this week
no commentswrite comment
1 2 3 4 5
excellent!
x 1
add to favorites
launch autoscroll
font size
0
reset
how to read this tab
guitar tuner
Tab Pro tools
  • play this tab
  • loop segment
  • change instrument
  • show fretboard
  • metronome
Autoscroll
slow
fast
+/-
esc
set tempo
stop
Contributor
The Stills
Lola Stars and stripes - from Logic will brake your heart

Tabbed by: Mark Bryce	25th November 2004

Email: Brycey81a@hotmail.com
Web: www.brycey.co.uk

_____________________________________________________

Tuning: EADGBe

Legend
	h    - hammer on
	p    - pull off
	/    - slide up


Guitar 1: Rhythm Guitar
Guitar 2: Lead Guitar


Intro:


Guitar 1:

   (^ ^ ^ ^ ^ ^ - Downstrokes throughout)

	A		E	     A		  E

e|--0-0-0-0-0-0---0-0-0-0-0-0---0-0-0-0-0-0---0-0-0-0-0-0-|
B|--2-2-2-2-2-2---0-0-0-0-0-0---2-2-2-2-2-2---0-0-0-0-0-0-|
G|--2-2-2-2-2-2---1-1-1-1-1-1---2-2-2-2-2-2---1-1-1-1-1-1-|
D|--2-2-2-2-2-2---2-2-2-2-2-2---2-2-2-2-2-2---2-2-2-2-2-2-|
A|--0-0-0-0-0-0---2-2-2-2-2-2---0-0-0-0-0-0---2-2-2-2-2-2-|
E|----------------0-0-0-0-0-0-----------------0-0-0-0-0-0-|


Guitar 2:


Temelo picked.............................................

e|---------------------------------------------------------|
B|--10-10-10-10-10--9-9-9-9-9-9--10-10-10-10-10--9-9-9-9-9-|
G|--9--9--9--9--9---9-9-9-9-9-9--9--9--9--9--9---9-9-9-9-9-|
D|---------------------------------------------------------|
A|---------------------------------------------------------|
E|---------------------------------------------------------|

____________________________________________________


Verse 1


Guitar 1:  (^ ^ ^ ^ ^ ^ - Downstrokes throughout)


we all need to feel secure,  with so many crowds

   	E		     A

e|--0-0-0-0-0-0-0-0------0-0-0-0-0-0-0-0---|
B|--0-0-0-0-0-0-0-0------2-2-2-2-2-2-2-2---|
G|--1-1-1-1-1-1-1-1------2-2-2-2-2-2-2-2---|
D|--2-2-2-2-2-2-2-2------2-2-2-2-2-2-2-2---|
A|--2-2-2-2-2-2-2-2------0-0-0-0-0-0-0-0---|
E|--0-0-0-0-0-0-0-0------------------------|


Guitar 2 (small fill)


e|------------------|
B|--/9--7-----------|
G|---------9--------|
D|------------------|
A|------------------|
E|------------------|


Guitar 1:


But i'm still waiting for next week's chemical blast

   	E		     A

e|--0-0-0-0-0-0-0-0------0-0-0-0-0-0-0-0---|
B|--0-0-0-0-0-0-0-0------2-2-2-2-2-2-2-2---|
G|--1-1-1-1-1-1-1-1------2-2-2-2-2-2-2-2---|
D|--2-2-2-2-2-2-2-2------2-2-2-2-2-2-2-2---|
A|--2-2-2-2-2-2-2-2------0-0-0-0-0-0-0-0---|
E|--0-0-0-0-0-0-0-0------------------------|


____________________________________________________

Intro riff (chords change around from intro though)


Guitar 1:

	E		A	     E		  A

e|--0-0-0-0-0-0---0-0-0-0-0-0---0-0-0-0-0-0---0-0-0-0-0-0--|
B|--0-0-0-0-0-0---2-2-2-2-2-2---0-0-0-0-0-0---2-2-2-2-2-2--|
G|--1-1-1-1-1-1---2-2-2-2-2-2---1-1-1-1-1-1---2-2-2-2-2-2--|
D|--2-2-2-2-2-2---2-2-2-2-2-2---2-2-2-2-2-2---2-2-2-2-2-2--|
A|--2-2-2-2-2-2---0-0-0-0-0-0---2-2-2-2-2-2---0-0-0-0-0-0--|
E|--0-0-0-0-0-0-----------------0-0-0-0-0-0----------------|


Guitar 2:


Temelo picked.............................................

e|---------------------------------------------------------|
B|--9-9-9-9-9-9--10-10-10-10-10--9-9-9-9-9--10-10-10-10-10-|
G|--9-9-9-9-9-9--9--9--9--9--9---9-9-9-9-9--9--9--9--9--9--|
D|---------------------------------------------------------|
A|---------------------------------------------------------|
E|---------------------------------------------------------|


____________________________________________________


Verse 2


Guitar 1:


don't go feeling insecure, no feeling sad

   	E		     A

e|--0-0-0-0-0-0-0-0------0-0-0-0-0-0-0-0---|
B|--0-0-0-0-0-0-0-0------2-2-2-2-2-2-2-2---|
G|--1-1-1-1-1-1-1-1------2-2-2-2-2-2-2-2---|
D|--2-2-2-2-2-2-2-2------2-2-2-2-2-2-2-2---|
A|--2-2-2-2-2-2-2-2------0-0-0-0-0-0-0-0---|
E|--0-0-0-0-0-0-0-0------------------------|


with an M16 you'll feel the surge of your american past

   	E		     A

e|--0-0-0-0-0-0-0-0------0-0-0-0-0-0-0-0---|
B|--0-0-0-0-0-0-0-0------2-2-2-2-2-2-2-2---|
G|--1-1-1-1-1-1-1-1------2-2-2-2-2-2-2-2---|
D|--2-2-2-2-2-2-2-2------2-2-2-2-2-2-2-2---|
A|--2-2-2-2-2-2-2-2------0-0-0-0-0-0-0-0---|
E|--0-0-0-0-0-0-0-0------------------------|


Guitar 2 (small fill)

e|----------------------------|
B|--12------10--------9-------|
G|----------------------------|
D|----------------------------|
A|----------------------------|
E|----------------------------|

_____________________________________________________


Pre-chorus


Guitar 1

but are you afraid?   you always said this world would never last

     E		A		E	A

e|--x--x-------5--5------------x--x----5--5----------------|
B|--9--9-------5--5------------9--9----5--5----------------|
G|--9--9-------6--6------------9--9----6--6----------------|
D|--9--9-------7--7------------9--9----7--7----------------|
A|--7--7-------7--7------------7--7----7--7----------------|
E|-------------5--5--------------------5--5----------------|


and lola i'm not afraid   if you star-wipe all your past away

     E		A		E	A

e|--x--x-------5--5------------x--x----5--5----------------|
B|--9--9-------5--5------------9--9----5--5----------------|
G|--9--9-------6--6------------9--9----6--6----------------|
D|--9--9-------7--7------------9--9----7--7----------------|
A|--7--7-------7--7------------7--7----7--7----------------|
E|-------------5--5--------------------5--5----------------|


Guitar 2 (faint in background)


e|-------------------------------------------------------|
B|-------------------------------------------------------|
G|-4-4-4-4-4-4-4-4-4-4-4-4-4-4-4-4-4-4-4-4-4-4-4-4-4-4-4-|
D|-------------------------------------------------------|
A|-------------------------------------------------------|
E|-------------------------------------------------------|

and the sun comes one more day

     E		A
e|--x--x-------5--5----------|
B|--9--9-------5--5----------|
G|--9--9-------6--6----------|
D|--9--9-------7--7----------|
A|--7--7-------7--7----------|
E|-------------5--5----------|

______________________________________


Chrous


Guitar 2

   lola...     		    lola.....


e|-12----12----11----11-----12----12----12----12---------|
B|----12----12----12----12-----12----12----12----12------|
G|-------------------------------------------------------|
D|-------------------------------------------------------|
A|-------------------------------------------------------|
E|-------------------------------------------------------|

will the world end me and you?


e|-12----12----14----14-----12----12----12----12---------|
B|----12----12----12----12-----12----12----12----12------|
G|-------------------------------------------------------|
D|-------------------------------------------------------|
A|-------------------------------------------------------|
E|-------------------------------------------------------|


   lola...     		    lola.....


e|-12----12----11----11-----12----12----12----12---------|
B|----12----12----12----12-----12----12----12----12------|
G|-------------------------------------------------------|
D|-------------------------------------------------------|
A|-------------------------------------------------------|
E|-------------------------------------------------------|


no i'm never gonna make it through


e|-12----12----14----14-----|
B|----12----12----12----12--|
G|--------------------------|
D|--------------------------|
A|--------------------------|
E|--------------------------|

______________________________________

Intro riff (with strings in background)


Guitar 1:

	E		A	     E		  A

e|--0-0-0-0-0-0---0-0-0-0-0-0---0-0-0-0-0-0---0-0-0-0-0-0--|
B|--0-0-0-0-0-0---2-2-2-2-2-2---0-0-0-0-0-0---2-2-2-2-2-2--|
G|--1-1-1-1-1-1---2-2-2-2-2-2---1-1-1-1-1-1---2-2-2-2-2-2--|
D|--2-2-2-2-2-2---2-2-2-2-2-2---2-2-2-2-2-2---2-2-2-2-2-2--|
A|--2-2-2-2-2-2---0-0-0-0-0-0---2-2-2-2-2-2---0-0-0-0-0-0--|
E|--0-0-0-0-0-0-----------------0-0-0-0-0-0----------------|


Guitar 2:


Temelo picked.............................................

e|---------------------------------------------------------|
B|--9-9-9-9-9-9--10-10-10-10-10--9-9-9-9-9--10-10-10-10-10-|
G|--9-9-9-9-9-9--9--9--9--9--9---9-9-9-9-9--9--9--9--9--9--|
D|---------------------------------------------------------|
A|---------------------------------------------------------|
E|---------------------------------------------------------|


Guitar 3:


e|---------------------------------------------------------|
B|---------------------------------------------------------|
G|-13b14r13-13--13b14r13-13-----11b12r11-11---11b12r11-11--|
D|---------------------------------------------------------|
A|---------------------------------------------------------|
E|---------------------------------------------------------|


______________________________________


Verse 2

(No guitars)


can you take me back to that place where stars glow


comets swarm like fireflies, outside your window


______________________________________________________

Pre-chorus


Guitar 1

but are you afraid?   you always said this world would never last

     E		A		E	A

e|--x--x-------5--5------------x--x----5--5----------------|
B|--9--9-------5--5------------9--9----5--5----------------|
G|--9--9-------6--6------------9--9----6--6----------------|
D|--9--9-------7--7------------9--9----7--7----------------|
A|--7--7-------7--7------------7--7----7--7----------------|
E|-------------5--5--------------------5--5----------------|


and lola i'm not afraid   if you star-wipe all your past away


     E		A		E	A

e|--x--x-------5--5------------x--x----5--5----------------|
B|--9--9-------5--5------------9--9----5--5----------------|
G|--9--9-------6--6------------9--9----6--6----------------|
D|--9--9-------7--7------------9--9----7--7----------------|
A|--7--7-------7--7------------7--7----7--7----------------|
E|-------------5--5--------------------5--5----------------|


Guitar 2 (faint in background)


e|-------------------------------------------------------|
B|-------------------------------------------------------|
G|-4-4-4-4-4-4-4-4-4-4-4-4-4-4-4-4-4-4-4-4-4-4-4-4-4-4-4-|
D|-------------------------------------------------------|
A|-------------------------------------------------------|
E|-------------------------------------------------------|

and the sun comes one more day

     E		A
e|--x--x-------5--5----------|
B|--9--9-------5--5----------|
G|--9--9-------6--6----------|
D|--9--9-------7--7----------|
A|--7--7-------7--7----------|
E|-------------5--5----------|


______________________________________


Chrous


Guitar 2

   lola...     		    lola.....


e|-12----12----11----11-----12----12----12----12---------|
B|----12----12----12----12-----12----12----12----12------|
G|-------------------------------------------------------|
D|-------------------------------------------------------|
A|-------------------------------------------------------|
E|-------------------------------------------------------|

will the world end me and you?


e|-12----12----14----14-----12----12----12----12---------|
B|----12----12----12----12-----12----12----12----12------|
G|-------------------------------------------------------|
D|-------------------------------------------------------|
A|-------------------------------------------------------|
E|-------------------------------------------------------|


   lola...     		    lola.....


e|-12----12----11----11-----12----12----12----12---------|
B|----12----12----12----12-----12----12----12----12------|
G|-------------------------------------------------------|
D|-------------------------------------------------------|
A|-------------------------------------------------------|
E|-------------------------------------------------------|


no i'm never gonna make it through


e|-12----12----14----14-----12----12----12----12---------|
B|----12----12----12----12-----12----12----12----12------|
G|-------------------------------------------------------|
D|-------------------------------------------------------|
A|-------------------------------------------------------|
E|-------------------------------------------------------|

______________________________________


Outro


Guitar 1:

lola lola lola lola ooooooooooohhhh

	E		A	     E		  A

e|--0-0-0-0-0-0---0-0-0-0-0-0---0-0-0-0-0-0---0-0-0-0-0-0--|
B|--0-0-0-0-0-0---2-2-2-2-2-2---0-0-0-0-0-0---2-2-2-2-2-2--|
G|--1-1-1-1-1-1---2-2-2-2-2-2---1-1-1-1-1-1---2-2-2-2-2-2--|
D|--2-2-2-2-2-2---2-2-2-2-2-2---2-2-2-2-2-2---2-2-2-2-2-2--|
A|--2-2-2-2-2-2---0-0-0-0-0-0---2-2-2-2-2-2---0-0-0-0-0-0--|
E|--0-0-0-0-0-0-----------------0-0-0-0-0-0----------------|

Guitar 2:


Temelo picked.............................................

e|---------------------------------------------------------|
B|--9-9-9-9-9-9--10-10-10-10-10--9-9-9-9-9--10-10-10-10-10-|
G|--9-9-9-9-9-9--9--9--9--9--9---9-9-9-9-9--9--9--9--9--9--|
D|---------------------------------------------------------|
A|---------------------------------------------------------|
E|---------------------------------------------------------|



Guitar 3:


e|-12----12----11----11-----12----12----12----12---------|
B|----12----12----12----12-----12----12----12----12------|
G|-------------------------------------------------------|
D|-------------------------------------------------------|
A|-------------------------------------------------------|
E|-------------------------------------------------------|

Guitar 2 Variation towards end:

lola lola lola lola ooooooooooohhhh

Temelo picked.............................................

e|---------------------------------------------------------|
B|--10-10-10-10-10--9-9-9-9-9-9--12p10-12p10-10-10-10------|
G|--9--9--9--9--9---9-9-9-9-9-9--9--9--9--9--9--9--9-------|
D|---------------------------------------------------------|
A|---------------------------------------------------------|
E|---------------------------------------------------------|

The End

By Mark Bryce
comments
We did not receive enough feedback on this tab! Please rate:
print report bad tab
1 2 3 4 5
I want to post or [tab]
guest
You may want to rate the tab now too:
select rating
Please do not post tabs as comments. Select "correction" instead!