Oops, an error
Loading. Please wait.

Of Montreal Tab

version 2
version 2

Whole song

964 views 1 this week
no commentswrite comment
1 2 3 4 5
excellent!
x 2
add to favorites
launch autoscroll
font size
0
reset
how to read this tab
guitar tuner
Tab Pro tools
  • play this tab
  • loop segment
  • change instrument
  • show fretboard
  • metronome
Autoscroll
slow
fast
+/-
esc
set tempo
stop
Contributor
Difficulty
intermediate
This Tab is a compliation of Mark Bryce's Tab of the Song.

There is three guitars tabbed on his, so I put together the tabs for the best parts to 
played on a single guitar.  It sounds really good so many thanks to Mark.  This is an 
song,  enjoy.

Of Montreal Tab by Stills, www.Ultimate-Guitar.Com


The Stills
Of Montreal - from Logic will brake your heart

Tabbed by: Shawn Walker  December 7, 2006

Intro

e|---------------------------------------------|
B|-x-x-x-x-x-x-x-x-x-x-x-x-x-x-x-x-10-10-10-10-|
G|-7-7-7-7-7-7-7-7-6-6-6-6-6-6-6-6-6--6--6--6--|   X2
D|---------------------------------------------|
A|---------------------------------------------|
E|---------------------------------------------|

e|---------------------------------------0-0-0-----------0-0-0-|
B|-x-x-x-x-x-x-x-x-x-x-x-x-x-x-x-x-x-x-x-x-x-x-x-x-x-x-x-x-x-x-|
G|-6-6-6-6-6-6-6-6-9-9-9-9-9-9-9-9-9-9-9-9-9-9-7-7-7-7-7-7-7-7-|
D|-------------------------------------------------------------|
A|-------------------------------------------------------------|
E|-------------------------------------------------------------|

e|-----------------------------0-0-0---------------------0-0-0-|
B|-x-x-x-x-x-x-x-x-x-x-x-x-x-x-x-x-x-x-x-x-x-x-x-x-x-x-x-x-x-x-|
G|-6-6-6-6-6-6-6-6/4-4-4-4-4-4-4-4-4/2-2-2-2-2-2-2-2-2-2-2-2-2-|
D|-------------------------------------------------------------|
A|-------------------------------------------------------------|
E|-------------------------------------------------------------|

e|---------------------------------------0-0-0-----------0-0-0-|
B|-x-x-x-x-x-x-x-x-x-x-x-x-x-x-x-x-x-x-x-x-x-x-x-x-x-x-x-x-x-x-|
G|-6-6-6-6-6-6-6-6-9-9-9-9-9-9-9-9-9-9-9-9-9-9-7-7-7-7-7-7-7-7-|
D|-------------------------------------------------------------|
A|-------------------------------------------------------------|
E|-------------------------------------------------------------|

e|-----------------------------0-0-0---------------------------|
B|-x-x-x-x-x-x-x-x-x-x-x-x-x-x-x-x-x-x-x-x-x-x-x-x-x-x-x-x-x-x-|
G|-6-6-6-6-6-6-6-6/4-4-4-4-4-4-4-4-4/6-6-6-6-6-6-6-6-6-6-6-6-6-|
D|-------------------------------------------------------------|
A|-------------------------------------------------------------|
E|-------------------------------------------------------------|

Verse 1

e|-0-------------------0---------------|
B|-2-------------------2---------------|
G|-2-------------------2---------------|
D|-0-------------------2---------------|
A|-0-------------------0---------------|
E|-------------------------------------|

e|-5--------------------0--------------|
B|-7--------------------7--------------|
G|-6--------------------6--------------|
D|-7--------------------7--------------|
A|-5--------------------5--------------|
E|-------------------------------------|

e|-0-------------------0---------------|
B|-2-------------------2---------------|
G|-2-------------------2---------------|
D|-0-------------------2---------------|
A|-0-------------------0---------------|
E|-------------------------------------|

e|-----5--5--5--5------|
B|-----7--7--7--7------|
G|-----6--6--6--6------|
D|-----7--7--7--7------|
A|-----5--5--5--5------|
E|---------------------|

Interlude 1

e|---------------------------------------0-0-0-----------0-0-0-|
B|-x-x-x-x-x-x-x-x-x-x-x-x-x-x-x-x-x-x-x-x-x-x-x-x-x-x-x-x-x-x-|
G|-6-6-6-6-6-6-6-6-9-9-9-9-9-9-9-9-9-9-9-9-9-9-7-7-7-7-7-7-7-7-|
D|-------------------------------------------------------------|
A|-------------------------------------------------------------|
E|-------------------------------------------------------------|

e|-----------------------------0-0-0---------------------0-0-0-|
B|-x-x-x-x-x-x-x-x-x-x-x-x-x-x-x-x-x-x-x-x-x-x-x-x-x-x-x-x-x-x-|
G|-6-6-6-6-6-6-6-6/4-4-4-4-4-4-4-4-4/6-6-6-6-6-6-6-6-6-6-6-6-6-|
D|-------------------------------------------------------------|
A|-------------------------------------------------------------|
E|-------------------------------------------------------------|

Verse 2

e|--------------------------------------|
B|-x-x-x-x-x-x-x-x-x-x-x-x-x-x-x-x-x-x--|
G|-7-7-7-7-7-7-7-7-7-7-7-7-7-7-7-7-7-7--|   X4
D|--------------------------------------|
A|--------------------------------------|
E|--------------------------------------|

Interlude 2:

e|---------------------------------------------|
B|-x-x-x-x-x-x-x-x-x-x-x-x-x-x-x-x-10-10-10-10-|
G|-7-7-7-7-7-7-7-7-6-6-6-6-6-6-6-6-6--6--6--6--|   X2
D|---------------------------------------------|
A|---------------------------------------------|
E|---------------------------------------------|

Verse 3

e|----------------------------------------------------|
B|----------------------------------------------------|
G|----------------------------------------------------|   X4
D|----------------------------------------------------|
A|-5-5-5-5-5-5-5-5-5-5-5-5-5-4-4-4-4-4-4-4-4-4-4-4-4--|
E|----------------------------------------------------|

Interlude 3

e|-------------------------------------------------------------|
B|-x-x-x-x-x-x-x-x-x-x-x-x-x-x-x-x-x-x-x-x-x-x-x-x-x-x-x-x-x-x-|
G|-6-6-6-6-6-6-6-6-9-9-9-9-9-9-9-9-9-9-9-9-9-9-7-7-7-7-7-7-7-7-|
D|-------------------------------------------------------------|
A|-------------------------------------------------------------|
E|-------------------------------------------------------------|

e|-------------------------------------------------------------|
B|-x-x-x-x-x-x-x-x-x-x-x-x-x-x-x-x-x-x-x-x-x-x-x-x-x-x-x-x-x-x-|
G|-6-6-6-6-6-6-6-6-6-6-6-6/4-4-4-4-4-4-4-4-4/2-2-2-2-2-2-2-2-2-|
D|-------------------------------------------------------------|
A|-------------------------------------------------------------|
E|-------------------------------------------------------------|

Breakdown part 1

 ..............tremelo picked......................................
e|--------------------------------------------12-12-12-12-12-12-12-|
B|--------------------------------------------x--x--x--x--x--x--x--|
G|--6-6-6-6-6-6-6-6-6-6--7-7-7-7-7-7-7-7-7-7--9--9--9--9--9--9--9--|
D|--x-x-x-x-x-x-x-x-x-x--x-x-x-x-x-x-x-x-x-x--x--x--x--x--x--x--x--|
A|--4-4-4-4-4-4-4-4-4-4--5-5-5-5-5-5-5-5-5-5--7--7--7--7--7--7--7--|
E|-----------------------------------------------------------------|

Breakdown part 2

e|---------------------------------------------|
B|-x-x-x-x-x-x-x-x-x-x-x-x-x-x-x-x-10-10-10-10-|
G|-7-7-7-7-7-7-7-7-6-6-6-6-6-6-6-6-6--6--6--6--|   X2
D|---------------------------------------------|
A|---------------------------------------------|
E|---------------------------------------------|


END
comments
We did not receive enough feedback on this tab! Please rate:
print report bad tab
1 2 3 4 5
I want to post or [tab]
guest
You may want to rate the tab now too:
select rating
Please do not post tabs as comments. Select "correction" instead!