Oops, an error
Loading. Please wait.

Still In Love Song Bass Tab

version 2
version 2

Whole song

Interactive

343 views 3 this week
no commentswrite comment
1 2 3 4 5
please rate
add to favorites
launch autoscroll
font size
0
reset
guitar tuner
Tab Pro tools
  • play this tab
  • loop segment
  • change instrument
  • show fretboard
  • metronome
×
Best way to learn
"Still In Love Song"
Autoscroll
slow
fast
+/-
esc
set tempo
stop
Contributor
Difficulty
novice
(0:00)
G|--------------------------------|
D|--------------------------------|
A|7-7-7-7-7-7-7-7-7-7-7-7-7-7-7-7\|
E|--------------------------------|


(0:19)
G|--------------------------------|--------------------------------|
D|--------------------------------|--------------------------------|
A|3-3-3-3-3-3-3-3-2-2-2-2-2-2-2-2/|7-7-7-7-7-7-7-7-7-7-7-7-7-7-7-7-|
E|--------------------------------|--------------------------------|


(0:34)
G|--------------------------------|--------------------------------|
D|--------------------------------|--------------------------------|
A|--------------------------------|--------------------------------|
E|3-3-3-3-3-3-3-3-5-5-5-5-5-5-5-5-|7-7-7-7-7-7-7-7-0-0-0-0-7-7-7-7-|

G|--------------------------------|--------------------------------|
D|--------------------------------|--------------------------------|
A|--------------------------------|--------------------------------|
E|8-8-8-8-8-8-8-8-8-8-8-8-8-8-8-8-|5-5-5-5-5-5-5-5-5-5-5-5-5-5-5-5-|


(1:01)
G|------------------9---11--12----|------------------9--11---12----|
D|--------------------------------|--------------------------------|
A|3-3-3-3-2-2-2-2/7---9---10--10\\|3-3-3-3-2-2-2-2/7---9---10--10\\|
E|--------------------------------|--------------------------------|

G|------------------9---11--12----|--------------------------------|
D|--------------------------------|--------------------------------|
A|3-3-3-3-2-2-2-2/7---9---10--10\\|3-3-3-3-2-2-2-2/7~--------------|
E|--------------------------------|--------------------------------|


(1:18) - Same as (0:34)


(1:45) - Same as (1:01)


(2:00)
G|--------------------------------|--------------------------------|
D|--------------------------------|--------------------------------|
A|--------------------------------|3-3-3-3-3-3-3-3-5-5-5-5-5-5-5-5-|
E|5-5-5-5-5-5-5-5-5-5-5-5-5-5-5-5-|--------------------------------|

G|----------------|
D|----------------|
A|5-5-5-5-5-5-5-5-|
E|----------------|


(2:12)
G|--------------------------------|--------------------------------|
D|--------------------------------|--------------------------------|
A|--------------------------------|--------------------------------|
E|0-0-0-0-0-0-0-0-0-0-0-0-0-0-0-0-|0-0-0-0-0-0-0-0-0-0-0-0-0-0-0-0-|


(2:31)
G|--------------------------------|--------------------------------|
D|--------------------------------|--------------------------------|
A|3-3-3-3-3-3-3-3-2-2-2-2-2-2-2-2-|--------------------------------|
E|--------------------------------|0-0-0-0-0-0-0-0-0-0-0-0-0-0-0-0-|


(2:45) - Same as (0:34)


(3:04) - Same as (1:01)


End on:
G|--------------------------------|
D|--------------------------------|
A|--------------------------------|
E|0~------------------------------|
comments
We did not receive enough feedback on this tab! Please rate:
print report bad tab
1 2 3 4 5
I want to post or [tab]
guest
You may want to rate the tab now too:
select rating
Please do not post tabs as comments. Select "correction" instead!