Oops, an error
Loading. Please wait.

I Killed Robert Johnson Tab

2,547 views 21 this week
2 commentsread comments
1 2 3 4 5
excellent!
x 4
add to favorites
launch autoscroll
font size
0
reset
how to read this tab
guitar tuner
Tab Pro tools
  • play this tab
  • loop segment
  • change instrument
  • show fretboard
  • metronome
Autoscroll
slow
fast
+/-
esc
set tempo
stop
Difficulty
intermediate
Tabbed by: Eric


  Intro
  Guitar 1 - listen for the strumming pattern
e|------3-----3-----3-------------------|
B|------3-----3-----3-------------------|
G|------0-----0-----0-------0-------0---|
D|------0-----0-----0-----0-------0-----| x4
A|--------------------0h1-----1h3-------|
E|--3-3---3-3---3-3---------------------|

  Guitar 2 comes in at 0:13
e|--------------------------------------|
B|--------------------------------------|
G|-3p2p0---------------3p2p0------------|
D|-------0h3p0-5-0h3-5------------------| x2
A|---------------------------0h1-1-1/3--|
E|--------------------------------------|

  Verse (0:26)
  Guitar 1
e|--3--3--3--3--3--3--------------------|
B|--3--3--3--3--3--3--------------------|
G|--0--0--0--0--0--0--------0-------0---|
D|--0--0--0--0--0--0------0-------0-----| x4
A|--------------------0h1-----1h3-------|
E|--------------------------------------|

  Guitar 2
e|--------------------------------------|
B|--------------------------------------|
G|-3p2p0---------------3p2p0------------|
D|-------0h3p0-5-0h3-5------------------| x4
A|---------------------------0h1-1-1/3--|
E|--------------------------------------|

  Pre-Chorus (0:51)     
e|-------------------1------------------|
B|--1----------------3------------------|
G|--0----------------2------------------| 
D|--2----------------0------------------|
A|--3-----------------------------------|
E|--------------------------------------|
    
  Chorus (0:57)
e|--------------------------------------|
B|--------------------------------------|
G|-3p2p0---------------3p2p0------------|
D|-------0h3p0-5-0h3-5------------------|
A|---------------------------0h1-1-1/3--|
E|--------------------------------------|

  (1:03)
e|--1-------1-------1-------------------|
B|--3-------3-------3-------------------|
G|--2--0h2--2--0h2--2-------------------|
D|--0-------0-------0-------------------|
A|--------------------------------------|
E|--------------------------------------|

  (1:12)
e|--------------------------------------|
B|--------------------------------------|
G|--------------------------------------|
D|--5\0--3h5--3h5-----------------------|
A|-----------------0h1h3b4r3p1----------|
E|--------------------------------------|

  Intro x2 (1:16)

  Verse x4 (1:29)

  Pre-chorus (1:54)
  Guitar 1
e|--------1/3\1--0-0h1p0-1-1-1-1--------|
B|--1~----------------------------------|
G|--0~----------------------------------| 
D|--2~----------------------------------|
A|--3~----------------------------------|
E|--------------------------------------|

  Chorus (2:00)

  Bridge (2:19)
  Guitar 1
e|----3--3--3--3--3---------------------|
B|----3--3--3--3--3---------------------|
G|----0--0--0--0--0---------0-------0---|
D|----0--0--0--0--0-------0-------0-----| x4
A|--------------------0h1-----1h3-------|
E|--3-----------------------------------|

  (2:44)
  Both guitars
e|--------------------------------------|    
B|--------------------------------------|    
G|-------------------------3-3/5-5-5-5--|    
D|--8--5--3--5--8--5-5-5-5-3-3/5-5-5-5--| x6 
A|--8--5--3--5--8--5-5-5-5-1-1/3-3-3-3--|    
E|--6--3--1--3--6--3-3-3-3--------------|    

  (3:20)
  Guitar 1
e|--3~----------------------------------|
B|--3~----------------------------------|
G|--0~--------0-------0-----------------|
D|--0~------0-------0-------------------|
A|------0h1-----1h3---------------------|
E|--------------------------------------|

  Verse x4 (3:22)

  Pre-Chorus
  (3:47)
e|--------------------------------------|
B|--1~----------------------------------|
G|--0~----------------------------------| 
D|--2~----------------------------------|
A|--3~--------------10\-----------------|
E|--------------------------------------|

  Chorus (3:54)

  Outro/Solo (4:13) - I'll figure out the solo later, but guitar 2 plays the bridge
comments
print report bad tab
2 comments total.
0 reply
sabbathslayer13 wrote on April 14 2015, 05:46 pm

This is not in standard tuning. The A is dropped down to a G.
So this is the tuning used: Low to high E G D G B e.

I showed my college guitar teacher the song and he pointed it out. If I'm wrong then correct me. The rest seems good. 5/5 stars.

0 reply
Anasky wrote on December 13 2015, 08:16 am

Beast tab mate! Love it!

I want to post or [tab]
guest
You may want to rate the tab now too:
select rating
Please do not post tabs as comments. Select "correction" instead!