Oops, an error
Loading. Please wait.

All For One chords

2,827 views 9 this week
no commentswrite comment
1 2 3 4 5
x 4
add to favorites
×
Save as Personal and add changes to this tab that will be seen only by you. Learn more ›
×
You can save this tab as Personal to edit and correct it or add notes. All changes will be seen only by you. Learn more »
launch autoscroll
font size
0
reset
transpose
0
reset
display chords
guitar tuner
edit
Autoscroll
slow
fast
+/-
esc
set tempo
stop
Author
Difficulty
Unregistered
intermediate
Strumming
There is no strumming pattern for this song yet. and get +5 IQ
No Capo 


[Main Riff] 

       All   for One             One    for All
e|-----3---1---0------------|-----3---1---0--------------|
B|-1h3---3---3--1-3-3-0-1-3-|-1h3---3---3----1-3-3-0-1-3-|
G|--------------------------|----------------------------|
D|--------------------------|----------------------------|
A|--------------------------|----------------------------|
E|--------------------------|----------------------------|

   If  we all  join hands we’ll make a wall   
e|-----3---1---0------------|----------------------------|
B|-1h3---3---3--1-3-3-0-1-3-|-0-1--3--1--0---------------|
G|--------------------------|--------------2-0-----------|
D|--------------------------|----------------------------|
A|--------------------------|----------------------------|
E|--------------------------|----------------------------|


[Intro]

e|-----3---1---0------------|-----3---1---0--------------|
B|-1h3---3---3--1-3-3-0-1-3-|-1h3---3---3----1-3-3-0-1-3-|
G|--------------------------|----------------------------|
D|--------------------------|----------------------------|
A|--------------------------|----------------------------|
E|--------------------------|----------------------------|



[Chorus] 

G   C   G   
All for One
G   F   C       
One for All
G              F           C      G  
If we all join hands we’ll make a wall


[Main Riff] 

e|-----3---1---0------------|-----3---1---0--------------|
B|-1h3---3---3--1-3-3-0-1-3-|-1h3---3---3----1-3-3-0-1-3-|
G|--------------------------|----------------------------|
D|--------------------------|----------------------------|
A|--------------------------|----------------------------|
E|--------------------------|----------------------------|
     
e|-----3---1---0------------|----------------------------|
B|-1h3---3---3--1-3-3-0-1-3-|-0-1--3--1--0---------------|
G|--------------------------|--------------2-0-----------|
D|--------------------------|----------------------------|
A|--------------------------|----------------------------|
E|--------------------------|----------------------------|


[Chorus]

G   C   G   
All for One
G   F   C       
One for All
G              F           C      G  
If we all join hands we’ll make a wall


[Main Riff] 

e|-----3---1---0------------|-----3---1---0--------------|
B|-1h3---3---3--1-3-3-0-1-3-|-1h3---3---3----1-3-3-0-1-3-|
G|--------------------------|----------------------------|
D|--------------------------|----------------------------|
A|--------------------------|----------------------------|
E|--------------------------|----------------------------|
     
e|-----3---1---0------------|----------------------------|
B|-1h3---3---3--1-3-3-0-1-3-|-0-1--3--1--0---------------|
G|--------------------------|--------------2-0-----------|
D|--------------------------|----------------------------|
A|--------------------------|----------------------------|
E|--------------------------|----------------------------|


[Chorus]

G   C   G   
All for One
G   F   C       
One for All
G              F           C      G  
If we all join hands we’ll make a wall


[Verse]

G
Inside of me
Bb
Verality 
F
In harmorny
C
All designed to be
G
The mystery
Bb
All eyes to see
F
Chemistry
C
All one family


[Main Riff] 

e|-----3---1---0------------|-----3---1---0--------------|
B|-1h3---3---3--1-3-3-0-1-3-|-1h3---3---3----1-3-3-0-1-3-|
G|--------------------------|----------------------------|
D|--------------------------|----------------------------|
A|--------------------------|----------------------------|
E|--------------------------|----------------------------|
     
e|-----3---1---0------------|----------------------------|
B|-1h3---3---3--1-3-3-0-1-3-|-0-1--3--1--0---------------|
G|--------------------------|--------------2-0-----------|
D|--------------------------|----------------------------|
A|--------------------------|----------------------------|
E|--------------------------|----------------------------|


[Bridge] 

G   C   G   
All for one
G   F   G   
One for all
G              F           C      G   
If we take a stand we will not fall


[Verse]

G
Inside of me
Bb
Verality 
C
In harmorny
G
All designed to be
G
The mystery
Bb
All eyes to see
C
Chemistry
G
All one family


[Solo]

G  Bb C  G


[Verse]

G
Inside of me
Bb
Verality
C
In harmony
G
All designed to be
G
The mystery
Bb
All eyes to see
C
Chemistry
G
All one family


[Main Riff] 

e|-----3---1---0------------|-----3---1---0--------------|
B|-1h3---3---3--1-3-3-0-1-3-|-1h3---3---3----1-3-3-0-1-3-|
G|--------------------------|----------------------------|
D|--------------------------|----------------------------|
A|--------------------------|----------------------------|
E|--------------------------|----------------------------|
     
e|-----3---1---0------------|----------------------------|
B|-1h3---3---3--1-3-3-0-1-3-|-0-1--3--1--0---------------|
G|--------------------------|--------------2-0-----------|
D|--------------------------|----------------------------|
A|--------------------------|----------------------------|
E|--------------------------|----------------------------|


[Outro]

G   C   G   
All for One
G   F   C       
One for All
G              F           C      G  
If we all join hands we’ll make a wall



************************************
| h  Hammer-on
************************************
Suggest correction
Creating personal tab
Creating personal tab
You can edit any tab online and save it as your Personal.

You can edit, replace or remove any tab part or add personal notes – all changes will be seen only by you.

Personal tabs can be accessed anytime from any device, even offline.
Learn more »
comments
print report bad tab
guest
Wanna post a correction for this tab? Suggest correction