Oops, an error
Loading. Please wait.

Elizabeth My Dear tab

version 1
version 1

Whole song

Interactive

37,630 views 69 this week
2 commentsread comments
1 2 3 4 5
x 27
add to favorites
×
Save as Personal and add changes to this tab that will be seen only by you. Learn more ›
×
You can save this tab as Personal to edit and correct it or add notes. All changes will be seen only by you. Learn more »
launch autoscroll
font size
0
reset
how to read this tab
guitar tuner
edit
Autoscroll
slow
fast
+/-
esc
set tempo
stop
Capo on 2nd fret

   Am              Am              Am              Am
e|--------0------|--------0------|--------0------|--------0-------|
B|------1------1-|------1------1-|------1------1-|------1-------1-|
G|-2-------------|-2-------------|-2-------------|-2--------------|
D|----2----------|----2----------|----2----------|----2-----------|
A|-0-------------|-0-------------|-0-------------|-0--------------|
E|----------0----|----------0----|----------0----|-----------0----|
  Intro                             Tear   me    apart      and

   G             Am                   C              Am
e|-------------|--------0-------|------------------|--------0------|
B|-0-----0-----|------1-------1-|-0---1-----1--0---|------1--------|
G|---0-----0-0-|-2--------------|---0---0--------0-|-2-----------2-|
D|-----0-----0-|----2-----------|---------2--------|----2------2---|
A|-------------|-0--------------|-2---3--------2---|-0-------------|
E|-3-----------|-----------0----|------------------|---------------|
  boil   my     bones                  I'll  not    rest   until

   D             Am             F              A
e|-2-----2-----|--------0-----|-1-----1------|-0-----0------|
B|---3-----3---|------1---0---|---1-----1--1-|---1-----1--1-|
G|-----2-----0-|-2----------1-|-----2--------|-----0--------|
D|-0-----------|----2---------|-3----------3-|-2----------2-|
A|-------------|-0------------|--------------|--------------|
E|-------------|--------------|--------------|--------------|
she's lost her  throne    my   aim   is       true      my

   G                         Am                           G         Am
e|-------------------------|--------0-----|--------0-----|------------0---|
B|-3---1---0----1--0-----0-|------1-------|------1-------|-0--1--0----1---|
G|---0---0---0--------0----|-2----------2-|-2----------2-|---------0--2---|
D|-0-----------------------|----2---------|----2---------|------------2---|
A|-----3---2----3--2-----2-|-0------------|-0----------0-|-2--3--2----0---|
E|--------------------3----|----------0---|----------0---|---------3--0---|
  message is   clear   its  curtains for   you        Elizabeth my dear

e|-------------------------|--------0-----|--------0-----|------------0---|
B|-3---1---0----1--0-----0-|------1-------|------1-------|-0--1--0----1---|
G|---0---0---0--------0----|-2----------2-|-2----------2-|---------0--2---|
D|-0-----------------------|----2---------|----2---------|------------2---|
A|-----3---2----3--2-----2-|-0------------|-0----------0-|-2--3--2----0---|
E|--------------------3----|----------0---|----------0---|---------3--0---|
Suggest correction
Creating personal tab
Creating personal tab
You can edit any tab online and save it as your Personal.

You can edit, replace or remove any tab part or add personal notes – all changes will be seen only by you.

Personal tabs can be accessed anytime from any device, even offline.
Learn more »
comments
print report bad tab
2 comments total.
0 reply
jockmock 142 Oct 01, 2007 08:25 AM

this is 100%. except for one miss
Here:
G Am C Am
E-------------|--------0-------|------------------|--------0------|-
B-0-----0-----|------1-------1-|-0---1-----1--0---|------1--------|-
G---0-----0-0-|-2--------------|---0---0--------0-|-2-----------2-|-
D-----0-----0-|----2-----------|---------2--------|----2------2---|-
A-------------|-0--------------|-2---3--------2---|-0-------------|-
E-3-----------|-----------0----|------------------|---------------|-
boil my bones I'll not rest until
it should be
G Am C Am
E-------------|--------0------|------------------|--------0------|-
B-0-----0-----|------1--------|-0---1-----1--0---|------1--------|-
G---0-----0-0-|-2-------------|---0---0--------0-|-2-----------2-|-
D-----0-----0-|----2----------|---------2--------|----2------2---|-
A-------------|-0-------------|-2---3--------2---|-0-------------|-
E-3-----------|-----------0---|------------------|---------------|-
boil my bones I'll not rest until
If you know what I mean. I ****ed up the rhythm when I did like this but that pluck on the first fret of the b string should not be there

0 reply
jockmock 142 Oct 01, 2007 08:26 AM

Like this I meant
G Am C Am
E-------------|--------0------|----------------|--------0------|-
B-0-----0-----|------1------0-|---1-----1--0---|------1--------|-
G---0-----0-0-|-2-------------|-0---0--------0-|-2-----------2-|-
D-----0-----0-|----2----------|-------2--------|----2------2---|-
A-------------|-0-----------2-|---3--------2---|-0-------------|-
E-3-----------|-----------0---|----------------|---------------|-
boil my bones I'll not rest until

guest
You may want to rate the tab now too:
select rating
Wanna post a correction for this tab? Suggest correction