Oops, an error
Loading. Please wait.

Fools Gold solo tab

version 1
version 1

Solo

Whole song

Interactive

13,155 views 9 this week
1 commentread comment
1 2 3 4 5
1 last vote to show rating
add to favorites
×
Save as Personal and add changes to this tab that will be seen only by you. Learn more ›
×
You can save this tab as Personal to edit and correct it or add notes. All changes will be seen only by you. Learn more »
launch autoscroll
font size
0
reset
how to read this tab
guitar tuner
backing track
0:00
0:00
edit
Autoscroll
slow
fast
+/-
esc
set tempo
stop
Author
Difficulty
-------------------------------------------------------------------------------
                          Fools Gold - Stone Roses
-------------------------------------------------------------------------------
Tabbed by: fiery_gazer
Email: fiery_gazer@yahoo.co.uk

/= pull off

Tuning:

e|-----------------------------------------------------------------------------|
B|-----------------------------------------------------------------------------|
G|-----------------------------------------------------------------------------|
D|-----------------------------------------------------------------------------|
A|--9-9-9---7----------------4-2---2-2-2---------------------------------------|
E|-------------9-7-5-5-5-5-------5--------0-1-2--2-2--0/2-2-0/2----------------|


After you play it once, the 3 9s at the beginning become 2 9s.

It is 98% correct, just listen for the timing.
Feel free to e-mail me if I had made any mistakes.

            
            
Suggest correction
Creating personal tab
Creating personal tab
You can edit any tab online and save it as your Personal.

You can edit, replace or remove any tab part or add personal notes – all changes will be seen only by you.

Personal tabs can be accessed anytime from any device, even offline.
Learn more »
Give kudos to tab author, rate the tab!
1 2 3 4 5
comments
print report bad tab
1 comment total.
0 reply
ruletheneck 324 Mar 20, 2010 12:39 AM

hey, just wondering, which solo is this? there are several solos in this song, for example the first one (which is sort of a bridge or fill-in) that goes:

e|--------------------------------------------------|
B|------------5-------------------------------------|
G|------5---5-----5---5-7------xx-7~~--------5------|
D|--5h7---7---------7-----7----xx-7~~----5h7---7----|
A|-----------------------------xx-------------------|
E|--------------------------------------------------|
(It's not perfect because I don't have a wah-wah pedal, but you get the jist)

-thanks

guest
You may want to rate the tab now too:
select rating
Wanna post a correction for this tab? Suggest correction