Oops, an error
Loading. Please wait.

Fools Gold tab

version 2
version 2

Whole song

Interactive

81,634 views 165 this week
6 commentsread comments
1 2 3 4 5
x 33
add to favorites
×
Save as Personal and add changes to this tab that will be seen only by you. Learn more ›
×
You can save this tab as Personal to edit and correct it or add notes. All changes will be seen only by you. Learn more »
launch autoscroll
font size
0
reset
how to read this tab
guitar tuner
backing track
0:00
0:00
edit
Autoscroll
slow
fast
+/-
esc
set tempo
stop
Author
The Stone Roses - Fool's Gold

[Riff 1]

e|--------------------------------------------------------------------|
B|--------------------------------------------------------------------|
G|--------------------------------------------------------------------|
D|------7-------5p4h5p4h5---------------------------------------------|
A|------------------------------3p2h3p2h3---3-----2---2---------------|
E|--5---------------------------------------------------3---4---5-----|


[Riff 2]

e|--------------------------------------------------------------------|
B|--------------------------------------------------------------------|
G|--------------------------------------------------------------------|
D|-----------5---------------5----------------------------------------|
A|------------7-5-------------7-5-3-------------3-5------------353----|
E|--5---5--5------8-8---8--8--------3---3--3-35-----5---5--5-35---5---| x2

e|--------------------------------------------------------------------|
B|--------------------------------------------------------------------|
G|--------------------------------------------------------------------|
D|-----------5---------------5----------------------------------------|
A|------------7-5-------------7-5-3-5---5--5----3-5-------------------|
E|--5---5--5------8-8---8--8-----------------35-----5-----------------| x1


[Riff 3]

e|------------------------------------|
B|------------------------------------|
G|------------------------------------|
D|------------------------------------|
A|----------3-----2-------------------|
E|--5-----------------3-3---3---4-----|


************************************

| h  Hammer-on
| p  Pull-off

************************************

Tabbed by NintEndO
Suggest correction
Creating personal tab
Creating personal tab
You can edit any tab online and save it as your Personal.

You can edit, replace or remove any tab part or add personal notes – all changes will be seen only by you.

Personal tabs can be accessed anytime from any device, even offline.
Learn more »
comments
print report bad tab
6 comments total. Showing first comments.
+1 reply
veniceking 51 Aug 05, 2008 06:26 AM

good tab, dont 4get, u need a wah pedal tho. i think a phazer as well.

0 reply
nickgloucester 90 Jul 07, 2009 03:18 PM

nice tab, this is the bass tab tho isn't it?

0 reply
ruletheneck 324 Mar 20, 2010 12:43 AM

no, i think it's guitar :) bass is doing something else. also, i don't have a wah pedal, but i think i've got most of the first fill-in/bridge/solo:

e|--------------------------------------------------|
B|------------5-------------------------------------|
G|------5---5-----5---5-7------xx-7~~--------5------|
D|--5h7---7---------7-----7----xx-7~~----5h7---7----|
A|-----------------------------xx-------------------|
E|--------------------------------------------------|

guest
You may want to rate the tab now too:
select rating
Wanna post a correction for this tab? Suggest correction