Oops, an error
Loading. Please wait.
We have an official I Wanna Be Adored tab made by UG professional guitarists. Check out the tab »
×
72,606 views 45 this week
4 commentsread comments
1 2 3 4 5
x 8
add to favorites
×
Save as Personal and add changes to this tab that will be seen only by you. Learn more ›
×
You can save this tab as Personal to edit and correct it or add notes. All changes will be seen only by you. Learn more »
launch autoscroll
font size
0
reset
how to read this tab
guitar tuner
backing track
0:00
0:00
edit
Autoscroll
slow
fast
+/-
esc
set tempo
stop
Author
Unregistered
Song:   I Wanna Be Adored
Artist: The Stone Roses
Transcribed by: Erik Persson

 [Intro] 1:30
e|---------------------------------I---------------------------------|
B|---------------7-----------------I----------------7----------------|
G|---9---7-9-7-9---9-7-9-7h9-7-----I----9---7-9-7-9---9-7h9-7h9-7--9-|
D|-9---9-----------------------9---I--9---9--------------------------|
A|---------------------------------I---------------------------------|
E|---------------------------------I---------------------------------|

e|-------------------------------------------------------------------|
B|-12p10h12p10h12p10h12p10-------------------------------------------|
G|-------------------------11-9--7--7/9--7---------------------------|
D|-------------------------------------------------------------------|
A|-------------------------------------------------------------------|
E|-------------------------------------------------------------------|

[Verse]
A      D         A       D      A
I  don't  have--- to sell my soul he's allready in me :II
e|--------------------------------------------------------------|
B|--------------------------------------------------------------|
G|-------------------------------9--------------------7---------|
D|--------------------------------------------------------------|
A|--------------------------------------------------------------|
E|--------------------------------------------------------------|

 [Chorus]
                    I wanna be adored
e|--------------------------------------------I-I--------------------|
B|------------------------------------------*-I-I--------------------|
G|-11^12^11-11-9-9-9--7--7--7------7----------I-I--------------------|
D|------------------------------9----9--------I-I--------------------|
A|------------------------------------------*-I-I--------------------|
E|--------------------------------------------I-I--------------------|

 [MIDDLE]
   D    C               8x    D
e|-2-2--0-0-0-------------I-I-2-2-2-2-2-2----------------------------|
B|-3-3--1-1-1-1-3-1-0---*-I-I-3-3-3-3-3-3----------------------------|
G|-2-2--0-0-0-------------I-I-2-2-2-2-2-2----------------------------|
D|-0-0--2-2-2-------------I-I-0-0-0-0-0-0----------------------------|
A|------3-3-3-----------*-I-I----------------------------------------|
E|------------------------I-I----------------------------------------|

 [Outro]
I gotta be adored
e|-------------------------------------------------7-7-----7-7-------|
B|---------------------------------7---------------------------------|
G|---------------------9---7-9-7h9---9-7-9-7h9-7h9-----9-9-----9-9\4-|
D|-------------------9---9-------------------------------------------|
A|-------------------------------------------------------------------|
E|-------------------------------------------------------------------|

e|-------------------------------------------------------------------|
B|----------------7-----------7-----------7--------------------------|
G|----9---7-9-7-9---9-7h9-7-9---9-7h9-7-9---9-7h9-9\4----------------|
D|--9---9------------------------------------------------------------|
A|-------------------------------------------------------------------|
E|-------------------------------------------------------------------|

                 I wanna be adored
   D   C    D     C                Em
e|-2-2-0-0--2--2--0----------------0-------|I I
B|-3-3-1-1--3--3--1----------------0-------|I I
G|-2-2-0-0--2--2--0----------------0-------|I I
D|-0-0-2-2--0--0--2----------------2-------|I I
A|-----3-3--------3----------------2-------|I I
E|---------------------------------0-------|I I

************************************

| h  Hammer-on
| p  Pull-off
| /  Slide up
| *  Natural harmonic
| \  Slide down
| ^  Bend

************************************

            
            
Suggest correction
Creating personal tab
Creating personal tab
You can edit any tab online and save it as your Personal.

You can edit, replace or remove any tab part or add personal notes – all changes will be seen only by you.

Personal tabs can be accessed anytime from any device, even offline.
Learn more »
comments
print report bad tab
4 comments total. Showing first comments.
0 reply
mossfryer 112 May 15, 2006 01:45 AM

i want the muffled lead bits too ;/

0 reply
weerez 10 Jun 24, 2006 06:16 AM

sounds good so far, but I'm a beginner at guitar and can only play the first few parts. great song.

0 reply
jack&coke 10 Jul 08, 2007 02:23 PM

i dont play this the same way, but the third note(9)doesnt sound right. if ya just miss it out it sounds much better. so ya
get...
D-9---------------------------9-|
G---9--7-9-7-9---9-7-9-7-9-7----|
B--------------7----------------|
then it's just the same again but the last note is on the G.hpe it hlps.x

guest
Wanna post a correction for this tab? Suggest correction