Oops, an error
Loading. Please wait.
We have an official I Wanna Be Adored tab made by UG professional guitarists. Check out the tab »
×
160,485 views 300 this week
6 commentsread comments
1 2 3 4 5
x 39
add to favorites
×
Save as Personal and add changes to this tab that will be seen only by you. Learn more ›
×
You can save this tab as Personal to edit and correct it or add notes. All changes will be seen only by you. Learn more »
launch autoscroll
font size
0
reset
how to read this tab
guitar tuner
backing track
0:00
0:00
edit
Autoscroll
slow
fast
+/-
esc
set tempo
stop
Author
Difficulty
intermediate
The Stone Roses - I Wanna Be Adored
Tabbed By TeamButcher - Liam Butcher 

(Bass Part Arranged For Guitar)

   G       D5        G       D5      E5
e|-----------------|---------------|---------------|---------------|
B|-----------------|---------------|---------------|---------------|
G|-----------------|---------------|---------------|---------------|
D|-----------------|---------------|---------------|---------------|
A|---------5-5-5-5-|---------5/7-5-|-7-----7-7-7-9-|-7-7-9--7-7----|
E|-3-3-3-3---------|-3-3-3-3-------|---0-0---------|------------0--|


[Figure 1]

   G       D5        G       D5        E5
PM .....................................................................
e|-----------------|-----------------|-----------------|-----------------14-|
B|-----------------|-----------------|-----------------|--------------------|
G|---------2-2-2-0-|---------2-2-2-0-|-----------------|--------------------|
D|-0-0-0-0-0-0-0-0-|-0-0-0-0-0-0-0-0-|-4-4-2---4-4-2---|--------------------|
A|-2-2-2-0---------|-2-2-2-0---------|-2-2-2-2-2-2-2-2-|-2-2-2-2-2-2-2-2----|
E|-3-3-3-----------|-3-3-3-----------|-0-0-0-0-0-0-0-0-|-0-0-0-0-0-0-0-0----|


[Intro Lead Played Over Figure 1] (with Reverb)

   G           D5            G           D5            E5
e|-17-19-17-14-17-14-------|-------------------------|-7------------------|---------------------|
B|-------------------17-15-|-17-15----------15-------|---------7---------7|---------------------|
G|-------------------------|-------16-14-16----16-14-|---9-7-----------7--|-------7------7------|
D|-------------------------|-------------------------|-------9---9-7-9----|-7-7/9----7/9----9-7-|
A|-------------------------|-------------------------|--------------------|---------------------|
E|-------------------------|-------------------------|--------------------|---------------------|

   G       D5        G        D5      E5
e|-----------------|----------------|------------------------|----------------|
B|---------------7-|-10-7-----------|------------------------|----------------|
G|---7---7-9-7-9---|------9-7-9--7--|-9h11p9/7h9p7-------7---|-------7--------|
D|-9---9-----------|----------------|--------------9-7-9---9-|-7-9-7---9--7-5-|
A|-----------------|----------------|------------------------|----------------|
E|-----------------|----------------|------------------------|----------------|

   G              D5            G               D5     E5
e|----------------------------|---------------------2|---------------------------|-------------------------|
B|----------------------------|----------------------|-3-------------------------|-----------------------7-|
G|------7---------------------|-------------2-2-2/4--|---4p2---2-----------------|-------------------------|
D|--7h9---9-9\7---7-----------|-------0--------------|-------4---4p2p0h2p0---0-2-|-----0h2-4-------0h2-0---|
A|--------------9---9p7-9-7\5-|-0-2-2---2p0----------|---------------------2-----|-0h2---------0h2---------|
E|----------------------------|----------------------|---------------------------|-------------------------|

   G         D5        G        D5     E5
e|----7---------------|--------------|--------------------|----------------------------|
B|-10---10-7-10-7-----|--------------|--------------------|----------------------------|
G|----------------9-7-|-9-7-----7--7-|-9h11p9-9p7---------|-7--------------------------|
D|--------------------|-----9-7------|------------9-7h9-9-|---9p7---7------------------|
A|--------------------|--------------|--------------------|-------9---9p7\5-7-9-7-5----|
E|--------------------|--------------|--------------------|-------------------------7\-|


[Main Riff]

   G     D5             G          D5        E5
e|--------------------|--------------------|--------------------|--------------------|
B|--------------------|-7------------------|--------------------|--------------------|
G|---9---7-9-7-9------|---9--7--9--7/9--7--|--------------------|--------------------|
D|-9---9--------------|--------------------|-9~-----------------|--------------------|
A|--------------------|--------------------|--------------------|--------------------|
E|--------------------|--------------------|--------------------|--------------------|

   G     D5             G          D5        E5
e|--------------------|--------------------|--------------------|-7p5-7p5-7p5-------------------|
B|--------------------|-7------------------|--------------------|-------------7p5-7p5-----------|
G|---9---7-9-7-9------|---9--7--9--7/9--7--|-9b11---------------|---------------------7-4 (4)/9-|
D|-9---9--------------|--------------------|--------------------|-------------------------------|
A|--------------------|--------------------|--------------------|-------------------------------|
E|--------------------|--------------------|--------------------|-------------------------------|


[Verse]

   G       D5          G         D5          E5
e|--------------------|--------------------|--------------------|--------------------|
B|--------------------|--------------------|--------------------|--------------------|
G|-7~-----------------|--------------------|-9~-----------------|--------------------|
D|--------------------|--------------------|--------------------|--------------------|
A|--------------------|--------------------|--------------------|--------------------|
E|--------------------|--------------------|--------------------|--------------------|

  G       D5          G         D5          E5
e|--------------------|--------------------|--------------------|--------------------|
B|--------------------|--------------------|--------------------|--------------------|
G|-7~-----------------|--------------------|-9~-----------------|--------------------|
D|--------------------|--------------------|--------------------|--------------------|
A|--------------------|--------------------|--------------------|--------------------|
E|--------------------|--------------------|--------------------|--------------------|


[Chorus]

  G        D5            G          D5       E5
e|--------------------|--------------------|--------------------|--------------------|
B|--------------------|--------------------|--------------------|--------------------|
G|-11b12r11---9---9---|--7---7---7--7\4--7-|-4------------------|--------------------|
D|--------------------|--------------------|--------------------|--------------------|
A|--------------------|--------------------|--------------------|--------------------|
E|--------------------|--------------------|--------------------|--------------------|

  G        D5            G          D5       E5
e|--------------------|--------------------|--------------------|--------------------|
B|--------------------|--------------------|--------------------|--------------------|
G|-11b12r11---9---9---|--7---7---7--7\4--7-|-4------------------|--------------------|
D|--------------------|--------------------|--------------------|--------------------|
A|--------------------|--------------------|--------------------|--------------------|
E|--------------------|--------------------|--------------------|--------------------|

   G     D5             G          D5        E5
e|--------------------|--------------------|--------------------|--------------------|
B|--------------------|-7------------------|--------------------|--------------------|
G|---9---7-9-7-9------|---9--7--9--7/9--7--|--------------------|--------------------|
D|-9---9--------------|--------------------|-9~-----------------|--------------------|
A|--------------------|--------------------|--------------------|--------------------|
E|--------------------|--------------------|--------------------|--------------------|


[Verse]

   G       D5          G         D5          E5
e|--------------------|--------------------|--------------------|--------------------|
B|--------------------|--------------------|--------------------|--------------------|
G|-7~-----------------|--------------------|-9~-----------------|--------------------|
D|--------------------|--------------------|--------------------|--------------------|
A|--------------------|--------------------|--------------------|--------------------|
E|--------------------|--------------------|--------------------|--------------------|

  G       D5          G         D5          E5
e|--------------------|--------------------|--------------------|--------------------|
B|--------------------|--------------------|--------------------|--------------------|
G|-7~-----------------|--------------------|-9~-----------------|--------------------|
D|--------------------|--------------------|--------------------|--------------------|
A|--------------------|--------------------|--------------------|--------------------|
E|--------------------|--------------------|--------------------|--------------------|


[Chorus]

  G        D5            G          D5       E5
e|--------------------|--------------------|--------------------|--------------------|
B|--------------------|--------------------|--------------------|--------------------|
G|-11b12r11---9---9---|--7---7---7--7\4--7-|-4------------------|--------------------|
D|--------------------|--------------------|--------------------|--------------------|
A|--------------------|--------------------|--------------------|--------------------|
E|--------------------|--------------------|--------------------|--------------------|

  G        D5            G          D5       E5
e|--------------------|--------------------|--------------------|--------------------|
B|--------------------|--------------------|--------------------|--------------------|
G|-11b12r11---9---9---|--7---7---7--7\4--7-|-4------------------|--------------------|
D|--------------------|--------------------|--------------------|--------------------|
A|--------------------|--------------------|--------------------|--------------------|
E|--------------------|--------------------|--------------------|--------------------|

   G     D5             G          D5        E5
e|--------------------|--------------------|--------------------|--------------------|
B|--------------------|-7------------------|--------------------|--------------------|
G|---9---7-9-7-9------|---9--7--9--7/9--7--|--------------------|--------------------|
D|-9---9--------------|--------------------|-9~-----------------|--------------------|
A|--------------------|--------------------|--------------------|--------------------|
E|--------------------|--------------------|--------------------|--------------------|


[Figure 2]

   D         C          D         C          D         C
e|----2--0---0--------|----2--0---0--------|----2--0---0--------|
B|----3--0---1--3-1-0-|----3--0---1--3-1-0-|----3--0---1--3-1-0-|
G|-2--2--0---0----0-0-|-2--2--0---0----0-0-|-2--2--0---0----0-0-|
D|-0---------2----2-0-|-0---------2----2-0-|-0---------2----2-0-|
A|-----------3----3---|-----------3----3---|-----------3----3---|
E|--------------------|--------------------|--------------------|


[Guitar Part played over Over Figure 2]

   D       C            D        C           D         C          D         C    
e|--------------------|--------------------|--------------------|--------------------|
B|-3-3-3-3-3p1--------|-3-3-3/5--5--3\1-3--|-3-3-3-3-3-3-1------|-3-1----1-----------|
G|-------------0--0---|--------------------|---------------0----|-----2--0--2-0---0--|
D|--------------------|--------------------|--------------------|---------------2----|
A|--------------------|--------------------|--------------------|--------------------|
E|--------------------|--------------------|--------------------|--------------------|

   D     C
e|--------------------|
B|--------------------|
G|--------------------|
D|-2-0-2---0----------|
A|------------3-------|
E|--------------------|

   D
e|-2-2-2-2-2-2-2-2----|-2-2-2-2-2----------|
B|-3-3-3-3-3-3-3-3----|-3-3-3-3-3----------|
G|-2-2-2-2-2-2-2-2----|-2-2-2-2-2----------|
D|-0-0-0-0-0-0-0-0----|-0-0-0-0-0----------|
A|--------------------|--------------------|
E|--------------------|--------------------|


[Outro]

e|--------------------|--------------------|--------------------|--------------------|
B|--------------------|--------------------|--------------------|--------------------|
G|--------------------|--------------------|--------------------|--------------------|
D|--------------------|--------------------|--------------------|--------------------|
A|--------------------|--------------------|--------------------|----------------7---|
E|--------------------|--------------------|--------------------|--------------------|

e|--------------------|--------------------|--------------------|-------------------------|
B|---------------7----|-10-7---7-----------|--------------------|-3-----------------------|
G|---7---7-9-7-9------|------9---9-7-------|--------------------|---4p2---2---------------|
D|-9---9--------------|--------------------|--------------------|-------4---4--2-4-0-0----|
A|--------------------|--------------------|--------------------|----------------------2~-|
E|--------------------|--------------------|--------------------|-------------------------|

e|--------------------|--------------------|-----------------------------|--------------------|
B|--------------------|--------------------|-3---------------------------|--------------------|
G|--------------------|--------------------|---4p2---2-------------------|--------------------|
D|--------------------|--------------------|-------4---4p2p0-2-4-2\0-----|--------------------|
A|--------------------|--------------------|-------------------------2/9-|--------------------|
E|--------------------|--------------------|-----------------------------|--------------------|

e|--------------------|--------------------|----------------------------|---------------------------|
B|--------------------|--------------------|-3--------------------------|---------------------------|
G|--------------------|--------------------|---4p2---2------------------|-2-------------2-4p2-------|
D|--------------------|--------------------|-------4---4p2p0-2-4-2\0----|---4p2-0-2h4-4-------4p2-4-|
A|--------------------|--------------------|-------------------------2~-|---------------------------|
E|--------------------|--------------------|----------------------------|---------------------------|

e|--------------------|--------------------|----------------------------|-----------------------|
B|--------------------|--------------------|-3--------------------------|-----------------------|
G|--------------------|--------------------|---4p2---2------------------|-----------------------|
D|--------------------|--------------------|-------4---4p2p0-2-4-2\0----|-2p4-2-0-------2--4----|
A|--------------------|--------------------|-------------------------2--|---------2--0--------2-|
E|--------------------|--------------------|----------------------------|-----------------------|

e|--------------------|--------------------|--------------------|--------------------|
B|--------------------|--------------------|------12----12-12---|------12------12----|
G|---9---7-9-7-9------|-11--9--7--7/9\7----|-9----------------9-|-9----------9----9\-|
D|-9---9--------------|--------------------|--------------------|--------------------|
A|--------------------|--------------------|--------------------|--------------------|
E|--------------------|--------------------|--------------------|--------------------|

e|--------------------|--------------------|--------------------|--------------------|
B|--------------------|--------------------|--------------------|--------------------|
G|---9---7-9-7-9------|--11-9-7-9-7-9-7-9--|--11-9-7-9-7-9-7-9--|--11-9-7-9----7-----|
D|-9---9--------------|--------------------|--------------------|-----------------9--|
A|--------------------|--------------------|--------------------|--------------------|
E|--------------------|--------------------|--------------------|--------------------|

e|-3--3---3-2----2---2-|-3-3-3-3-2-2-2-2----|
B|-0--0---0-3----3---3-|-0-0-0-0-3-3-3-3----|
G|-0--0---0-2----2---2-|-0-0-0-0-2-2-2-2----|
D|-0--0---0-0----0---0-|-0-0-0-0-0-0-0-0----|
A|---------------------|--------------------|
E|-3--3---3------------|-3-3-3-3------------|END.


*****************************************************

PM. = Palm Mute
\   = Slide Up the Fretboard
/   = Slide Down the Fretboard
h   = hammer on the note
p   = pull off the note
~   = Vibrato
b   = bend note up
r   = release note to original pitch

*****************************************************

            
            
Suggest correction
Creating personal tab
Creating personal tab
You can edit any tab online and save it as your Personal.

You can edit, replace or remove any tab part or add personal notes – all changes will be seen only by you.

Personal tabs can be accessed anytime from any device, even offline.
Learn more »
comments
print report bad tab
6 comments total. Showing first comments.
0 reply
sfa34 10 Jul 04, 2009 10:12 AM

This tab is 100% correct

+3 reply
Guitardude76 30 Aug 03, 2009 06:57 PM

Fantastic. Perfect tab of maybe the best opening song on any album!

0 reply
smiths--indeed 72 Jan 18, 2011 07:43 AM

thats quality ...song and tab :D

guest
You may want to rate the tab now too:
select rating
Wanna post a correction for this tab? Suggest correction