Oops, an error
Loading. Please wait.
We have an official I Wanna Be Adored tab made by UG professional guitarists. Check out the tab »
×
615 views 3 this week
no commentswrite comment
1 2 3 4 5
2 more votes to show rating
add to favorites
×
Save as Personal and add changes to this tab that will be seen only by you. Learn more ›
×
You can save this tab as Personal to edit and correct it or add notes. All changes will be seen only by you. Learn more »
launch autoscroll
font size
0
reset
guitar tuner
backing track
0:00
0:00
edit
Autoscroll
slow
fast
+/-
esc
set tempo
stop
Title: I Wanna Be Adored
Artist: The Stone Roses
Album: The Stone Roses

Tabbed by jaronthebassist

Tempo = 112

Bass starts at 0:39

G ||---------------------------|----------------------------|
D ||o--------------------------|----------------------------|
A ||o------------5--5--5--5----|--------------5--7--5-------|
E ||-3--3--3--3----------------|--3--3--3--3----------------|


--------------------------------------------------------------------------------|
--------------------------------------------------------------------------------|
--7-----------------------------------------------7-----------------------7L----|
--------------0-----------0-----------0-----------------------0-----------------|


-----------------------|---------------------------|||
-----------------------|--------------------------o|||
------7s-9L------------|--9--7--7--9-----7--7-----o|||
-----------------------|-----------------------0---||| x 15


---------------------------|----------------------------|
o--------------------------|----------------------------|
o------------5--5--5--5----|--------------5--7--5-------|
-3--3--3--3----------------|--3--3--3--3----------------|


----------------------------|---------------------------|||
----------------------------|--------------------------o|||
--7--7--7--7--7--7--7--7----|--7--7--7--7--7--7--7--7--o|||
----------------------------|---------------------------||| x 2


--------------------------------------------------||
o------------------------------------------------o||
o5-----------5-----------3-----------3-----------o||
----------------------5--------5-----------5------|| x 8


----------------------------|----------------------------||
----------------------------|----------------------------||
--5--5-----5--5--5--5--5----|--5--5--5--5--5-------------||
----------------------------|----------------------------||


---------------------------|----------------------------|
o--------------------------|----------------------------|
o------------5--5--5--5----|--------------5--7--5-------|
-3--3--3--3----------------|--3--3--3--3----------------|


--------------------------------------------------------------------------------|
--------------------------------------------------------------------------------|
--7-----------------------------------------------7-----------------------7L----|
--------------0-----------0-----------0-----------------------0-----------------|


-----------------------|---------------------------|||
-----------------------|--------------------------o|||
------7s-9L------------|--9--7--7--9-----7--7-----o|||
-----------------------|-----------------------0---||| x 2


---------------------------|----------------------------|
o--------------------------|----------------------------|
o------------5--5--5--5----|--------------5--7--5-------|
-3--3--3--3----------------|--3--3--3--3----------------|


----------------------------|---------------------------||
----------------------------|--------------------------o||
--7--7--7--7--7--7--7--7----|--7--7--7--7--7--7--7--7--o||
----------------------------|---------------------------|| x 3


----------------------------|----------------------------|
----------------------------|----------------------------|
--------------5--5--5--5----|--------------5--7--5-------|
--3--3--3--3----------------|--3--3--3--3----------------|


--------------------------------------------------------------------------------|
--------------------------------------------------------------------------------|
--7-----------------------------------------------7-----------------------7L----|
--------------0-----------0-----------0-----------------------0-----------------|


-----------------------|----------------------------|
-----------------------|----------------------------|
------7s-9L------------|--9--7--7--9-----7--7-------|
-----------------------|-----------------------0----|


----------------------------|----------------------------|
----------------------------|----------------------------|
--------------5--5--5--5----|--------------5--7--5-------|
--3--3--3--3----------------|--3--3--3--3----------------|


----------------------------|----------------------------|----------------|
----------------------------|----------------------------|----------------|
--7--7--7--7--7--7--7--7----|--7--7--7--7--7--7--7--7----|--------5--5----|
----------------------------|----------------------------|--3--3----------|


----------------------------|-------||
----------------------------|-------||
--------------5--7--5-------|-------||
--3-----3-------------------|--0----||

Legend
L - tied note
x - dead note
h - hammer on/pull off
b - bend
s - slide
~ - vibrato
g - ghost note
> - accentuated note
t - trill
M - palm mute
. - staccato
P - popping (bass)
S - slapping (bass)
+ - tapping
W - wide vibrato
< - fade in
w - whammy bar
= - tremolo picking
v - brush up
^ - brush down
V - pick stroke up
n - pick stroke down

            
            
Suggest correction
Creating personal tab
Creating personal tab
You can edit any tab online and save it as your Personal.

You can edit, replace or remove any tab part or add personal notes – all changes will be seen only by you.

Personal tabs can be accessed anytime from any device, even offline.
Learn more »
Give kudos to tab author, rate the tab!
1 2 3 4 5
comments
print report bad tab
guest
You may want to rate the tab now too:
select rating
Wanna post a correction for this tab? Suggest correction