Oops, an error
Loading. Please wait.

Made Of Stone intro tab

version 1
version 1

Intro

Whole song

Interactive

1,357 views 9 this week
no commentswrite comment
1 2 3 4 5
3 more votes to show rating
add to favorites
×
Save as Personal and add changes to this tab that will be seen only by you. Learn more ›
×
You can save this tab as Personal to edit and correct it or add notes. All changes will be seen only by you. Learn more »
launch autoscroll
font size
0
reset
how to read this tab
guitar tuner
backing track
0:00
0:00
edit
Autoscroll
slow
fast
+/-
esc
set tempo
stop
-------------------------------------------------------------------------------
                           Made Of Stone - The Stone Roses
-------------------------------------------------------------------------------
Tabbed by: alexhm1

Tuning: EADGBE

Capo: 2nd fret (frets counted from capo)

Key: E minor

This tab is for the intro/outro of the song and is tabbed from this video: youtube.com/watch?v=NjsRjj4cX0U. 
All credit goes to him!

This is exactly the same way that Squire plays it on the Late Show performance!

             E7             E6        Cmaj/E/E#5(aug?)     EmTriad
e|----9-----9---------8-----8---------6-----6---------5-----5----------------|
B|------7-----7---7-----7-----7---7-----6-----6---6-----6-----6---5h6p5------|
G|--------------8---------------8---------------7----------------------------|
D|--0-----0---------0-----0---------0-----0---------0-----0------------------|
A|---------------------------------------------------------------------------|
E|---------------------------------------------------------------------------|

            E7              E6              Cmaj/E/E#5(aug?)       
e|----9-----9---------8-----8---------6-----6-------5------------------------|
B|------7-----7---7-----7-----7---7-----6-----6---6-6------------------------|
G|--------------8---------------8---------------7---7------------------------|
D|--0-----0---------0-----0---------0-----0---------0------------------------|
A|---------------------------------------------------------------------------|
E|---------------------------------------------------------------------------|

(Mani's bass intro plays)

EmTriad
e|--5--|
B|--6--|
G|--7--|
D|--0--|
A|-----|
E|-----|

The outro at the end is the same but played faster.


************************************

| /   slide up
| \   slide down
| h   hammer-on
| p   pull-off
| ~   vibrato
| +   harmonic
| x   Mute note
| b   Bend
| pb  Pre-bend
| br  Bend release
| pbr Pre-bend release
| brb Bend release bend

************************************
Suggest correction
Creating personal tab
Creating personal tab
You can edit any tab online and save it as your Personal.

You can edit, replace or remove any tab part or add personal notes – all changes will be seen only by you.

Personal tabs can be accessed anytime from any device, even offline.
Learn more »
Give kudos to tab author, rate the tab!
1 2 3 4 5
comments
print report bad tab
guest
You may want to rate the tab now too:
select rating
Wanna post a correction for this tab? Suggest correction