Oops, an error
Loading. Please wait.

Sally Cinnamon tab

version 2
version 2

Whole song

Interactive

18,833 views 3 this week
no commentswrite comment
1 2 3 4 5
x 3
add to favorites
×
Save as Personal and add changes to this tab that will be seen only by you. Learn more ›
×
You can save this tab as Personal to edit and correct it or add notes. All changes will be seen only by you. Learn more »
launch autoscroll
font size
0
reset
how to read this tab
guitar tuner
edit
Autoscroll
slow
fast
+/-
esc
set tempo
stop
Author
Difficulty
Intro:
E|-------------------------------3~-------------------0~-----0--3~---------|
B|----3--------------------------2~-------------------1~-----1--2~---------|
G|---------5-4-5-4-5-4-5-4-2-----3~---5-4-5-4-5-4-2---2~-----2--3~---------|
D|-5----5------------------------0~-------------------0~-----0--0~---------|
A|-------------------------------0~-------------------3~-----3--0~---------|
E|-------------------------------0~-------------------0~-----0--0~---------|

GONE TELL SALLY I WAS NEVER HAPPY.....

E|--7-7-7-7-7-7-7-7-----8-8-8-8-8-8-8-8---------------------|
B|--8-8-8-8-8-8-8-8-----8-8-8-8-8-8-8-8---------------------|
G|--7-7-7-7-7-7-7-7-----5-5-5-5-5-5-5-5---------------------|
D|----------------------------------------------------------|
A|----------------------------------------------------------|
E|----------------------------------------------------------|

JOIN MY TEARS......

E|----5---7-5-----|------------------|----5----7--5--|-------------------|
B|--8---8-----8---|------5-----------|--8---8--------|------5------------|
G|----------------|-5--7---7--5--7---|---------------|-5--7----7--5--7---|
D|----------------|------------------|---------------|-------------------|
A|----------------|------------------|---------------|-------------------|
E|----------------|------------------|---------------|-------------------|

                      SENT TO ME FROM HEAVEN...

E|--------------------3~---------------0~------------------------|
B|--------------------2~---------------1~------------------------|
G|--5-5-5-5-4---------3~---------------2~------------------------|
D|------------5\------0~---------------0~------------------------|
A|--------------------0~---------------3~------------------------|
E|--------------------0~---------------0~------------------------|

THEN GO BACK TO INTRO RIFF
AFTER THAT, CONTINUE THE VERSES
UNTIL....

SOLO

E|--------------------|----------------|----------------------------|
B|--------12----12-13-|--12--12--------|--13h12----13h12-----13h12--|
G|-2/12------12----12-|------12--12-12-|--------12-------12---------|
D|--------------------|----------------|----------------------------|
A|--------------------|----------------|----------------------------|
E|--------------------|----------------|----------------------------|


E|---------------|----------------------|----------------------|
B|---------------|-------------------13-|---12-----------------|
G|-12-12---12-12-|-14-12-14-12-14-12----|-------12---12---12---|
D|---------------|----------------------|----------------------|
A|---------------|----------------------|----------------------|
E|---------------|----------------------|----------------------|


E|-----------------------|--------------------------|
B|-15--15-15-15-13-12-13-|-----12-------------------|
G|-----------------------|----------12----12-12\----|
D|-----------------------|--------------------------|
A|-----------------------|--------------------------|
E|-----------------------|--------------------------|



YOUR EYES ARE GAZIN BACK FROM.....

E|-----------------------------------------------------------|
B|-7-7-7-7-7-7-7-7-7-7---5-5-5-5-5-5-5-5-5-5-----------------| PLAY THIS
G|-7-7-7-7-7-7-7-7-7-7---5-5-5-5-5-5-5-5-5-5-----------------|  3 TIMES
D|-7-7-7-7-7-7-7-7-7-7---5-5-5-5-5-5-5-5-5-5-----------------|
A|-5-5-5-5-5-5-5-5-5-5---3-3-3-3-3-3-3-3-3-3-----------------|
E|-----------------------------------------------------------|

(LISTEN TO SONG FOR CHORD CHANGES AT THAT PART)


BACK TO INTRO RIFF
THEN PLAY VERSE RIFFS AGAIN

ACOUSTIC ENDIN CHORDS ARE

G    C   

CONTINUE THESE FOR FADIN OUT


THANKS ALAN MC HERE

GOOD SONG AND ENJOY

RIP IT UP


            
            
Suggest correction
Creating personal tab
Creating personal tab
You can edit any tab online and save it as your Personal.

You can edit, replace or remove any tab part or add personal notes – all changes will be seen only by you.

Personal tabs can be accessed anytime from any device, even offline.
Learn more »
Give kudos to tab author, rate the tab!
1 2 3 4 5
comments
print report bad tab
guest
You may want to rate the tab now too:
select rating
Wanna post a correction for this tab? Suggest correction