Oops, an error
Loading. Please wait.

Sally Cinnamon tab

version 3
version 3

Whole song

Interactive

4,644 views 3 this week
1 commentread comment
1 2 3 4 5
x 3
add to favorites
×
Save as Personal and add changes to this tab that will be seen only by you. Learn more ›
×
You can save this tab as Personal to edit and correct it or add notes. All changes will be seen only by you. Learn more »
launch autoscroll
font size
0
reset
how to read this tab
guitar tuner
edit
Autoscroll
slow
fast
+/-
esc
set tempo
stop
Author
Difficulty
Seen a few tabs, but none were 100% right, this isnt either im sure, but its closer.

Stone Roses at their melodic, make you feel good about the world best.

~=vibrato
xxxx=palm muted or muted note
p=pull off

Intro

e-------------------------------|
b---3-1-0--1-0-1-0-1-0----------|
g-0--------------------2~-0-----|
d-------------------------------|
a-------------------------------|
e-------------------------------|

e-------------------------2------------002---|
b---3-1-0--1-0-1-0-1-0----3--1-0-1-0---113---|
g-0--------------------2~-2----------2-002---|
d-------------------------0------------220---|
a-------------------------0------------330---|
e-------------------------0------------000---|

No guitar for the first verse.

Second verse riff.

("Down they would pour...")0.30

e----------------------------------|
b-------12----------------12-------|
g-12-14----14-12-14-12-14----14-12-|
d----------------------------------|
a----------------------------------|
e----------------------------------|

After "Join my tears"
e-----------------------|
b-----5-----------5-----|
g-5-7---7-5-7-5-7---7-5-|
d-----------------------|
a-----------------------|
e-----------------------|
 xxxxxxxxxxxxxxxxxxxxxxx
                            "Allay my fears"
e----------------------------------|
b-------12----------------12-------|
g-12-14----14-12-14-12-14----14-12-|
d----------------------------------|
a----------------------------------|
e----------------------------------|
                          Sent to me from heaven, Sally cinnamon you're my.
e--------------------------2----------------------0--|
b-----5--------------------3----------------------1--|
g-5-7---7-5-7-5-7--55554---2----------------------0--|
d-----------------------5~-0----------------------2--|
a--------------------------0----------------------3--|
e--------------------------0----------------------0--|
 xxxxxxxxxxxxxxxx

Repeat intro.

Repeat above verse riffs for the first half of the second verse (over the lyrics "i pop 
pop blow blow bubble gum, you taste of cheery aid, there is something here you must show me".

For the second half (after the line "...from what you are made" at 1.16)play this. (For 
part try and make the notes 'bounce'. When you listen to the song, you'll understand 
I mean.)

e-----------------------------------|
b----------12----x13-12-------------|
g-14-12-14----14-------xx14-12-14---|
d-----------------------------------|
a-----------------------------------|
e-----------------------------------|

e-----------------------|
b-----5-----------5-----|
g-5-7---7-5-7-5-7---7-5-|
d-----------------------|
a-----------------------|
e-----------------------|
 xxxxxxxxxxxxxxxxxxxxxxx

e-----------------------------------|
b----------12----x13-12-------------|
g-14-12-14----14-------xx14-12-14---|
d-----------------------------------|
a-----------------------------------|
e-----------------------------------|

                         Sent to me from heaven, Sally cinnamon you're my.
e--------------------------2----------------------0----|
b-----5--------------------3----------------------1----|
g-5-7---7-5-7-5-7--55554---2----------------------0----|
d-----------------------5~-0----------------------2----|
a--------------------------0----------------------3----|
e--------------------------0----------------------0----|

For solo see version two, that is completely accurate.


 D
Your eyes are gazing back from
 C
Every little piece of glass
 D
You seem to smile from every place
       C    G
Sally Cinn-amon

(Silent)
You are my world

Strum G and C to fade.


Have fun. Easy but amazing song.

            
            
Suggest correction
Creating personal tab
Creating personal tab
You can edit any tab online and save it as your Personal.

You can edit, replace or remove any tab part or add personal notes – all changes will be seen only by you.

Personal tabs can be accessed anytime from any device, even offline.
Learn more »
Give kudos to tab author, rate the tab!
1 2 3 4 5
comments
print report bad tab
1 comment total.
0 reply
Who66 1,186 Mar 16, 2009 06:01 PM

seems this is how the main riff is actually played.

guest
You may want to rate the tab now too:
select rating
Wanna post a correction for this tab? Suggest correction