Oops, an error
Loading. Please wait.

Shoot You Down bass

version 2
version 2

Whole song

2,874 views 3 this week
1 commentread comment
1 2 3 4 5
x 3
add to favorites
×
Save as Personal and add changes to this tab that will be seen only by you. Learn more ›
×
You can save this tab as Personal to edit and correct it or add notes. All changes will be seen only by you. Learn more »
launch autoscroll
font size
0
reset
guitar tuner
edit
Autoscroll
slow
fast
+/-
esc
set tempo
stop
Author
Difficulty
Tabbed by Timo2a

Stick to the main riff for the whole song unless told to do otherwise.
Main riff for intro, verses and outro:

|-----------------------------|
|-----------------------------|
|--------12--------------12---|
|-8---10----8-8---10---8----8-|

"And the time has come"
|----------------|
|----------------|
|-12/--------8/--|
|----------------|

"When the day is done"
|---------------------------------------------|
|---------------------------------------------|
|---------------------------------------------|
|-3-3--3-3-3--3-3-3--3-3-3--3-1-1--1-1---1/---|

Chorus: "I never wanted"
|---------------------------------------------------------------------------------|
|---------------------------------------------------------------------------------|
|--------------------------------8-8--8-8-8--8-8-8--8--8--8--8--------------------|
|-8-8--8-8-8--8-8-8--8-8--8--8---------------------------------8-8--8-8-8--8-8----|

"And how I wish"
|---------------------|
|---------------------|
|---------------------|
|-3--3--3-3--1--1-1---| X2

They are all the parts that Mani plays, he may throw in a fill or two in places but that 
is mostly it. It's easy to work out when you play each bit.
Suggest correction
Creating personal tab
Creating personal tab
You can edit any tab online and save it as your Personal.

You can edit, replace or remove any tab part or add personal notes – all changes will be seen only by you.

Personal tabs can be accessed anytime from any device, even offline.
Learn more »
Give kudos to tab author, rate the tab!
1 2 3 4 5
comments
print report bad tab
1 comment total.
+1 reply
beanster2510 10 Jan 15, 2014 08:13 AM

nicely done, this is the one to use.

guest
You may want to rate the tab now too:
select rating
Wanna post a correction for this tab? Suggest correction