Oops, an error
Loading. Please wait.
We have an official Waterfall tab made by UG professional guitarists. Check out the tab »
×
7,758 views 6 this week
2 commentsread comments
1 2 3 4 5
x 6
add to favorites
×
Save as Personal and add changes to this tab that will be seen only by you. Learn more ›
×
You can save this tab as Personal to edit and correct it or add notes. All changes will be seen only by you. Learn more »
launch autoscroll
font size
0
reset
how to read this tab
guitar tuner
backing track
0:00
0:00
edit
Autoscroll
slow
fast
+/-
esc
set tempo
stop
This song is awsome, I just love this band!!!!
PLZ rate this tab

enjoy!


Intro
|-----2---------------------|
|-------2-------0-----0-----|
|---------3--------3--------|     x4
|--4---------4--------------|
|---------------------------|
|---------------------------|

Verse
|-----2--------------|----7------6-------4-------4-----|
|-------2------0---0-|------7------7-------4-------4---|
|---------3------3---|---------------------------------|
|--4---------4-------|-9-------8-------6-------6-------| x2
|--------------------|---------------------------------|
|--------------------|---------------------------------|
 \__________x4______/ \______________x2_______________/
         
Small interlude
|-----2---------------------|
|-------2-------0-----0-----|
|---------3--------3--------| x2
|--4---------4--------------|
|---------------------------|
|---------------------------|

Then play verse again (throughout the whole song except for the end)

Then the song changes

Interlude: Struming

  G#min            B
|--4-4-4-4-4-4-4-4-7-7-7-7-7-7-7-7------|
|--4-4-4-4-4-4-4-4-7-7-7-7-7-7-7-7------|
|--4-4-4-4-6-6-4-4-8-8-8-8-8-8-8-8------|
|--6-6-6-6-6-6-6-6-9-9-9-9-9-9-9-9------|
|--6-6-6-6-6-6-6-6-9-9-9-9-9-9-9-9------|
|--4-4-4-4-4-4-4-4-7-7-7-7-7-7-7-7------|

  G#min            B      G#min F#
|--4-4-4-4-4-4-4-4-7-7-7-7-4-4-2-2------|
|--4-4-4-4-4-4-4-4-7-7-7-7-4-4-2-2------|
|--4-4-4-4-6-6-4-4-8-8-8-8-4-4-3-3------|
|--6-6-6-6-6-6-6-6-9-9-9-9-6-6-4-4------|
|--6-6-6-6-6-6-6-6-9-9-9-9-6-6-4-4------|
|--4-4-4-4-4-4-4-4-7-7-7-7-4-4-2-2------|

|--2--4--2-------2---4--2---------------------------------------------|
|--2--------2----2--------2------2------------------------------------|
|--3-------------3------------------4---------------------------------|
|--4-------------4-------------------------6--4-----1h2h4--4-----6--4-|
|--4-------------4----------------------------------------------------|
|--2-------------2----------------------------------------------------|

|-----------------------------------------|
|-----------------------------------------|
|-----------------3----4--3---------------|
|-1h2h4--4---6---------------6---4--------|
|-----------------------------------------|
|-----------------------------------------|

|---------------------------------------------------------------|
|---------------------------------------------------------------|
|---------------------------------------------------------------|
|--1h2h4--4-4-4-4--1h2h4--4-4-4-4-1h2h4--4-4-4-4--1h2h4--4------|
|---------4-4-4-4---------4-4-4-4--------4-4-4-4---------4------|
|---------2-2-2-2---------2-2-2-2--------2-2-2-2---------2------|

|---------------------------------------------------------------|
|---------------------------------------------------------------|
|------------------3------4--3----------------------------------|
|-4/6---4----4/6-----------------6---4--------------------------|
|---------------------------------------------------------------|
|---------------------------------------------------------------|

|---------------------------------------------------------------|
|---------------------------------------------------------------|
|---------------------------------------------------------------|
|--1h2h4--4-4-4-4--1h2h4--4-4-4-4-1h2h4--4-4-4-4--1h2h4--4------|
|---------4-4-4-4---------4-4-4-4--------4-4-4-4---------4------|
|---------2-2-2-2---------2-2-2-2--------2-2-2-2---------2------|

|--2--4--2-------2---4--2-----|
|--2--------2----2--------2---|
|--3-------------3------------|
|--4-------------4------------|
|--4-------------4------------|
|--2-------------2------------|

|-----2---------------------|  \
|-------2-------0-----0-----|   \    
|---------3--------3--------|    \ Play to the   
|--4---------4--------------|    /     end
|---------------------------|   /         
|---------------------------|  /

|--2---2---2---2---2---2----|
|----5---5---5---5---5---5--|
|---------------------------|   this riff is played ontop of the one above
|---------------------------|
|---------------------------|
|---------------------------|







            
            
Suggest correction
Creating personal tab
Creating personal tab
You can edit any tab online and save it as your Personal.

You can edit, replace or remove any tab part or add personal notes – all changes will be seen only by you.

Personal tabs can be accessed anytime from any device, even offline.
Learn more »
comments
print report bad tab
2 comments total.
+1 reply
KMeisster 31 Apr 26, 2007 04:15 AM

Orsome tab man...rock on...du...de

0 reply
jroriginal 10 Oct 27, 2009 02:43 PM

Solo and Interlude sound good but i think the intro sounds better over a D chord.

guest
You may want to rate the tab now too:
select rating
Wanna post a correction for this tab? Suggest correction