Oops, an error
Loading. Please wait.

Where Angels Play Bass Tab

version 1
version 1

Whole song

Interactive

52 views 3 this week
no commentswrite comment
1 2 3 4 5
3 more votes to show rating
add to favorites
launch autoscroll
font size
0
reset
guitar tuner
Autoscroll
slow
fast
+/-
esc
set tempo
stop
Help us to improve Ultimate-Guitar.com Take our survey!
×
Author
Difficulty
novice
[Verse 1]

G|-----|----------------|----------------|----------------|
D|-----|----------------|----------------|----------------|
A|-----|----------------|----------------|--3h5-3-2-3--2--|
E|-----|----------------|----------------|----------------|


G|-----|----------------|----------------|----------------|
D|-----|----------------|----------------|----------------|
A|-----|----------------|----------------|--3h5-3-2-3--2--|
E|--3--|----------------|----------------|----------------|


[Verse 2]

G|------------------|-----------------|-----------------|-----------------|
D|------------------|-----------------|-----------------|-----------------|
A|--3-3-0---3-3-0---|-5-5-2-0-5-5-2-0-|-3-3-0---3-3-0---|-5-5-2-0-5-5-2-0-|
E|--------3-------3-|-----------------|-------3-------3-|-----------------|


G|-----------------|-----------------|----------------|----------------|
D|-----------------|-----------------|----------------|----------------|
A|-3-3-0---3-3-0---|-5-5-2-0-5-5-2-0-|-3--3--2--2--5--|-------------5--|
E|-------3-------3-|-----------------|----------------|----------------|


[Interlude]

G|------------------|----------------|----------------|---------------------|
D|------------------|----------------|----------------|---------------------|
A|------------------|-------------2--|--3--3-2-3-2-0--|-5--5--3h5p3-2-3--5--|
E|--3-3-3-3-3-3-3-3-|-3-3-3-3-3-3----|----------------|---------------------|


[Verse 3]

G|------------------|----------------|----------------|----------------|
D|------------------|----------------|----------------|----------------|
A|------------------|-------------2--|--3--3-2-3-2-0--|--3h5p3-2-3--5--|
E|--3-3-3-3-3-3-3-3-|-3-3-3-3-3-3----|----------------|----------------|


G|------------------|----------------|----------------|----------------|
D|------------------|----------------|----------------|----------------|
A|------------------|-------------2--|--3--3-2-3-2-0--|--3h5p3-2-3--5--|
E|-3--3-3-3-3-3-3-3-|-3-3-3-3-3-3----|----------------|----------------|


[Verse 4]

G|-------------------|-----------------|-----------------|-----------------|
D|-------------------|-----------------|-----------------|-----------------|
A|-3-3-3-0---3-3-0---|-5-5-2-0-5-5-2-0-|-3-3-0---3-3-0---|-5-5-2-0-5-5-2-0-|
E|---------3-------3-|-----------------|-------3-------3-|-----------------|


G|-----------------|-----------------|----------------|---------------|
D|-----------------|-----------------|----------------|-----------7-\-|
A|-3-3-0---3-3-0---|-5-5-2-0-5-5-2-0-|-3--3--2--2--5--|---------------|
E|-------3-------3-|-----------------|----------------|---------------|


G|-------------|----------------|
D|-------------|----------------|
A|-3--3--2--2--|--3-2-3-5--5--5-|
E|-------------|----------------|


[Chorus]

G|-----------------|-----------------|-----------------|-----------------| (x2)
D|-5-5---5-4-4---4-|-----------------|-----------------|-----------------|
A|-----5-------5---|-7-7-5-7-5-5---5-|-3-3-0-3-2-2-0-2-|-3-3-2-3-5-5-5-5-|
E|-----------------|-------------7---|-----------------|-----------------|


G|-----------------|-----------|
D|-5-5---5-4-4---4-|-----2--0--|
A|-----5-------5---|-5\--------|
E|-----------------|-----------|


G|-----------------|----------------|----------------|----------------|
D|-----------------|----------------|----------------|----------------|
A|--3-3-3-2--0---0-|-2-2-2-0------0-|-3-3-3-2--0---0-|-2-2-2-0------0-|
E|-------------3---|----------3-2---|------------3---|----------3-2---|


G|----------------|----------------|-----------|-------------|
D|----------------|----------------|-----------|-------------|
A|-3-3-0-5--5-5-0-|-3-3-0-5--5-5-5-|-3---3--3--|--5-----3--2-|
E|----------------|----------------|-----------|-------------|


[Verse 5]

G|-----------------|----------------|----------------|----------------|
D|-----------------|----------------|----------------|----------------|
A|-----------------|-------------2--|--3--3-2-3-2-0--|--3h5p3-2-3--5--|
E|-3-3-3-3-3-3-3-3-|-3-3-3-3-3-3----|----------------|----------------|


G|------------------|----------------|----------------|----------------|
D|------------------|----------------|----------------|----------------|
A|------------------|-------------2--|--3--3-2-3-2-0--|--3h5p3-2-3--5--|
E|-3--3-3-3-3-3-3-3-|-3-3-3-3-3-3----|----------------|----------------|


[Verse 6]

G|-------------------|-----------------|-----------------|-----------------|
D|-------------------|-----------------|-----------------|-----------------|
A|-3-3-3-0---3-3-0---|-5-5-2-0-5-5-2-0-|-3-3-0---3-3-0---|-5-5-2-0-5-5-2-0-|
E|---------3-------3-|-----------------|-------3-------3-|-----------------|


G|-----------------|-----------------|----------------|---------------|
D|-----------------|-----------------|----------------|-----------7-\-|
A|-3-3-0---3-3-0---|-5-5-2-0-5-5-2-0-|-3--3--2--2--5--|---------------|
E|-------3-------3-|-----------------|----------------|---------------|


G|-------------|----------------|
D|-------------|----------------|
A|-3--3--2--2--|--3-2-3-5--5--5-|
E|-------------|----------------|


[Chorus]

G|-----------------|-----------------|-----------------|-----------------| (x2)
D|-5-5---5-4-4---4-|-----------------|-----------------|-----------------|
A|-----5-------5---|-7-7-5-7-5-5---5-|-3-3-0-3-2-2-0-2-|-3-3-2-3-5-5-5-5-|
E|-----------------|-------------7---|-----------------|-----------------|


G|-----------------|-----------|
D|-5-5---5-4-4---4-|-----2--0--|
A|-----5-------5---|-5\--------|
E|-----------------|-----------|


G|-----------------|-------------|----------------|----------------|
D|-----------------|-------------|----------------|----------------|
A|--3-3-3-2--0---0-|-2-2-2-0-----|-3-3-3-2--0---0-|-2-2-2-0------0-|
E|-------------3---|----------3--|------------3---|----------3-2---|


G|----------------|----------|
D|----------------|----------|
A|-3-3-0-5--5-5-0-|-3-3-0-5--|
E|----------------|----------|


[Outro]

G|--------------|----------------|----------------|---------------| (x6)
D|--------------|----------------|----------------|-----------7-\-|
A|--3--3--2--2--|--3-2-3-5--5--5-|-3--3--2--2--5--|---------------|
E|--------------|----------------|----------------|---------------|

  (repeat until the end)
G|----------------|---------------|
D|----------------|-----------7-\-|
A|-3--3--2--2--5--|---------------|
E|----------------|---------------|



*************************

| \ : slide down
| h : hammer-on
| p : pull-off

*************************

in regular sequence!
Suggest correction
Give kudos to tab author, rate the tab!
1 2 3 4 5
comments
print report bad tab
guest
You may want to rate the tab now too:
select rating
Wanna post a correction for this tab? Suggest correction