Oops, an error
Loading. Please wait.

Gimme Danger chords

version 1
version 1

Whole song

Interactive

2,233 views 81 this week
no commentswrite comment
1 2 3 4 5
1 last vote to show rating
add to favorites
×
Save as Personal and add changes to this tab that will be seen only by you. Learn more ›
×
You can save this tab as Personal to edit and correct it or add notes. All changes will be seen only by you. Learn more »
launch autoscroll
font size
0
reset
transpose
0
reset
simplify chords
display chords
guitar tuner
edit
Autoscroll
slow
fast
+/-
esc
set tempo
stop
Strumming
There is no strumming pattern for this song yet. and get +5 IQ
----------------------------------------------------------------------------------------------------
                            Iggy & The Stooges - Gimme Danger
----------------------------------------------------------------------------------------------------

Album : Raw Power (1973)
Tempo : 128
E-mail: gwendal.mollo@orange.fr
Tabbed by: newg    (http://profile.ultimate-guitar.com/newg/)

See my guitar pro/powertab/tab for more

[Intro]

    Emadd9       D                C7M         A
D#|-----2-----------2----------|-----3--------------0-------|
A#|--------0--------x--3-------|--0-----------------2-------|
F#|--------------2--------2----|--0-----0-----2--2--2--2----|
C#|--2--------2--0--------0----|--2--------2--2--2--2--2----|
G#|--2-------------------------|--3--------3--0--0--0--0----|
D#|--0-------------------------|----------------------------|

    E5   Cm(no5) E5               D            C7M
D#|----------------------------|-----------------------0----|
A#|----------------------------|--------3------------0------|
F#|-----------------------0----|-----2----0--------0--------|
C#|--2-----2-----2--------2----|--0--------------2----------|
G#|--2-----4-----2-------------|---------------3------------|
D#|--0-----------0-------------|----------------------------| x4



[Verse]
      E5      Cm(no5) E5     D        C7M    
Gimme danger,         little stranger
         E5    Cm(no5) E5    D        C7M    
And I'll give          you a piece
      E5      Cm(no5) E5     D        C7M    
Gimme danger,         little stranger
         E5   Cm(no5) E5     D        C7M    
And I'll feel         your disease 

[Chorus]
        Dsus2         Emadd9
There's nothing in my dreams 
          C7M      A
Just some ugly memories
Dsus2   Emadd9   C7M   A
kiss me like the ocean breeze

E5 Cm(no5) E5        D C7M   
              Yeah !
E5 Cm(no5) E5   D C7M   

[Verse]
    E5     Cm(no5) E5    D      C7M    
Now if you will    be my lover
       E5   Cm(no5) E5    D      C7M    
I will shiver         and sing
    E5     Cm(no5) E5    D      C7M    
But if you can     be my master
       E5  Cm(no5) E5    D      C7M    
I will do             anything

[Chorus]
        Dsus2           Emadd9
There's nothing left to life
      C7M            A
But a pair of glassy eyes
Dsus2   Emadd9   C7M      A
Raze my feelings one more time

E5 Cm(no5) E5        D C7M   
              Yeah !
E5 Cm(no5) E5   D C7M   

[Bridge]
E                    G    
Find a little strip, find a little stranger
D                         E
Yeah you're gonna feel my hand
E                            G    
Said , I got a little angel, want a little danger
D                          E
Honey you're gonna feel my hand
D                          E
Swear you're gonna feel my hand
D                          E
Swear you're gonna feel my hand 

E  D  C  A x2

[Outro]
E        D           C    A
Gimme danger, Little stranger
E        D           C    A
Gimme danger, Little stranger
E        D           C    A
Gimme danger, Little stranger
E        D           C    A
Gimme danger, Little stranger
E        D           C    A
Gimme danger, Little stranger
E        D           C    A
        E        D    C                      A
Can you feel me?    gotta feel me, You gotta feel this
       E
Little stranger

            
            
Suggest correction
Creating personal tab
Creating personal tab
You can edit any tab online and save it as your Personal.

You can edit, replace or remove any tab part or add personal notes – all changes will be seen only by you.

Personal tabs can be accessed anytime from any device, even offline.
Learn more »
Give kudos to tab author, rate the tab!
1 2 3 4 5
comments
print report bad tab
guest
You may want to rate the tab now too:
select rating
Wanna post a correction for this tab? Suggest correction